  0
SECTION
  2
HEADER
  9
$ACADVER
  1
AC1015
  9
$ACADMAINTVER
 70
     6
  9
$DWGCODEPAGE
  3
ANSI_1252
  9
$INSBASE
 10
0.0
 20
0.0
 30
0.0
  9
$EXTMIN
 10
-13.35074
 20
-16.58796
 30
0.0
  9
$EXTMAX
 10
8.99686
 20
7.0071
 30
0.0
  9
$LIMMIN
 10
0.0
 20
0.0
  9
$LIMMAX
 10
12.0
 20
9.0
  9
$ORTHOMODE
 70
     0
  9
$REGENMODE
 70
     1
  9
$FILLMODE
 70
     1
  9
$QTEXTMODE
 70
     0
  9
$MIRRTEXT
 70
     1
  9
$LTSCALE
 40
1.0
  9
$ATTMODE
 70
     1
  9
$TEXTSIZE
 40
0.2
  9
$TRACEWID
 40
0.05
  9
$TEXTSTYLE
  7
Standard
  9
$CLAYER
  8
0
  9
$CELTYPE
  6
ByLayer
  9
$CECOLOR
 62
   256
  9
$CELTSCALE
 40
1.0
  9
$DISPSILH
 70
     0
  9
$DIMSCALE
 40
1.0
  9
$DIMASZ
 40
0.18
  9
$DIMEXO
 40
0.0625
  9
$DIMDLI
 40
0.38
  9
$DIMRND
 40
0.0
  9
$DIMDLE
 40
0.0
  9
$DIMEXE
 40
0.18
  9
$DIMTP
 40
0.0
  9
$DIMTM
 40
0.0
  9
$DIMTXT
 40
0.18
  9
$DIMCEN
 40
0.09
  9
$DIMTSZ
 40
0.0
  9
$DIMTOL
 70
     0
  9
$DIMLIM
 70
     0
  9
$DIMTIH
 70
     1
  9
$DIMTOH
 70
     1
  9
$DIMSE1
 70
     0
  9
$DIMSE2
 70
     0
  9
$DIMTAD
 70
     0
  9
$DIMZIN
 70
     0
  9
$DIMBLK
  1

  9
$DIMASO
 70
     1
  9
$DIMSHO
 70
     1
  9
$DIMPOST
  1

  9
$DIMAPOST
  1

  9
$DIMALT
 70
     0
  9
$DIMALTD
 70
     2
  9
$DIMALTF
 40
25.4
  9
$DIMLFAC
 40
1.0
  9
$DIMTOFL
 70
     0
  9
$DIMTVP
 40
0.0
  9
$DIMTIX
 70
     0
  9
$DIMSOXD
 70
     0
  9
$DIMSAH
 70
     0
  9
$DIMBLK1
  1

  9
$DIMBLK2
  1

  9
$DIMSTYLE
  2
Standard
  9
$DIMCLRD
 70
     0
  9
$DIMCLRE
 70
     0
  9
$DIMCLRT
 70
     0
  9
$DIMTFAC
 40
1.0
  9
$DIMGAP
 40
0.09
  9
$DIMJUST
 70
     0
  9
$DIMSD1
 70
     0
  9
$DIMSD2
 70
     0
  9
$DIMTOLJ
 70
     1
  9
$DIMTZIN
 70
     0
  9
$DIMALTZ
 70
     0
  9
$DIMALTTZ
 70
     0
  9
$DIMUPT
 70
     0
  9
$DIMDEC
 70
     4
  9
$DIMTDEC
 70
     4
  9
$DIMALTU
 70
     2
  9
$DIMALTTD
 70
     2
  9
$DIMTXSTY
  7
Standard
  9
$DIMAUNIT
 70
     0
  9
$DIMADEC
 70
     0
  9
$DIMALTRND
 40
0.0
  9
$DIMAZIN
 70
     0
  9
$DIMDSEP
 70
    46
  9
$DIMATFIT
 70
     3
  9
$DIMFRAC
 70
     0
  9
$DIMLDRBLK
  1

  9
$DIMLUNIT
 70
     2
  9
$DIMLWD
 70
    -2
  9
$DIMLWE
 70
    -2
  9
$DIMTMOVE
 70
     0
  9
$LUNITS
 70
     2
  9
$LUPREC
 70
     4
  9
$SKETCHINC
 40
0.1
  9
$FILLETRAD
 40
0.5
  9
$AUNITS
 70
     0
  9
$AUPREC
 70
     0
  9
$MENU
  1
.
  9
$ELEVATION
 40
0.0
  9
$PELEVATION
 40
0.0
  9
$THICKNESS
 40
0.0
  9
$LIMCHECK
 70
     0
  9
$CHAMFERA
 40
0.0
  9
$CHAMFERB
 40
0.0
  9
$CHAMFERC
 40
0.0
  9
$CHAMFERD
 40
0.0
  9
$SKPOLY
 70
     0
  9
$TDCREATE
 40
2459243.38873787
  9
$TDUCREATE
 40
2459243.347071204
  9
$TDUPDATE
 40
2459243.388737963
  9
$TDUUPDATE
 40
2459243.347071296
  9
$TDINDWG
 40
0.0000000116
  9
$TDUSRTIMER
 40
0.0000000116
  9
$USRTIMER
 70
     1
  9
$ANGBASE
 50
0.0
  9
$ANGDIR
 70
     0
  9
$PDMODE
 70
     0
  9
$PDSIZE
 40
0.0
  9
$PLINEWID
 40
0.0
  9
$SPLFRAME
 70
     0
  9
$SPLINETYPE
 70
     6
  9
$SPLINESEGS
 70
     8
  9
$HANDSEED
  5
C7
  9
$SURFTAB1
 70
     6
  9
$SURFTAB2
 70
     6
  9
$SURFTYPE
 70
     6
  9
$SURFU
 70
     6
  9
$SURFV
 70
     6
  9
$UCSBASE
  2

  9
$UCSNAME
  2

  9
$UCSORG
 10
0.0
 20
0.0
 30
0.0
  9
$UCSXDIR
 10
1.0
 20
0.0
 30
0.0
  9
$UCSYDIR
 10
0.0
 20
1.0
 30
0.0
  9
$UCSORTHOREF
  2

  9
$UCSORTHOVIEW
 70
     0
  9
$UCSORGTOP
 10
0.0
 20
0.0
 30
0.0
  9
$UCSORGBOTTOM
 10
0.0
 20
0.0
 30
0.0
  9
$UCSORGLEFT
 10
0.0
 20
0.0
 30
0.0
  9
$UCSORGRIGHT
 10
0.0
 20
0.0
 30
0.0
  9
$UCSORGFRONT
 10
0.0
 20
0.0
 30
0.0
  9
$UCSORGBACK
 10
0.0
 20
0.0
 30
0.0
  9
$PUCSBASE
  2

  9
$PUCSNAME
  2

  9
$PUCSORG
 10
0.0
 20
0.0
 30
0.0
  9
$PUCSXDIR
 10
1.0
 20
0.0
 30
0.0
  9
$PUCSYDIR
 10
0.0
 20
1.0
 30
0.0
  9
$PUCSORTHOREF
  2

  9
$PUCSORTHOVIEW
 70
     0
  9
$PUCSORGTOP
 10
0.0
 20
0.0
 30
0.0
  9
$PUCSORGBOTTOM
 10
0.0
 20
0.0
 30
0.0
  9
$PUCSORGLEFT
 10
0.0
 20
0.0
 30
0.0
  9
$PUCSORGRIGHT
 10
0.0
 20
0.0
 30
0.0
  9
$PUCSORGFRONT
 10
0.0
 20
0.0
 30
0.0
  9
$PUCSORGBACK
 10
0.0
 20
0.0
 30
0.0
  9
$USERI1
 70
     0
  9
$USERI2
 70
     0
  9
$USERI3
 70
     0
  9
$USERI4
 70
     0
  9
$USERI5
 70
     0
  9
$USERR1
 40
0.0
  9
$USERR2
 40
0.0
  9
$USERR3
 40
0.0
  9
$USERR4
 40
0.0
  9
$USERR5
 40
0.0
  9
$WORLDVIEW
 70
     1
  9
$SHADEDGE
 70
     3
  9
$SHADEDIF
 70
    70
  9
$TILEMODE
 70
     1
  9
$MAXACTVP
 70
    64
  9
$PINSBASE
 10
0.0
 20
0.0
 30
0.0
  9
$PLIMCHECK
 70
     0
  9
$PEXTMIN
 10
1.000000000000000E+20
 20
1.000000000000000E+20
 30
1.000000000000000E+20
  9
$PEXTMAX
 10
-1.000000000000000E+20
 20
-1.000000000000000E+20
 30
-1.000000000000000E+20
  9
$PLIMMIN
 10
0.0
 20
0.0
  9
$PLIMMAX
 10
12.0
 20
9.0
  9
$UNITMODE
 70
     0
  9
$VISRETAIN
 70
     1
  9
$PLINEGEN
 70
     0
  9
$PSLTSCALE
 70
     1
  9
$TREEDEPTH
 70
  3020
  9
$CMLSTYLE
  2
Standard
  9
$CMLJUST
 70
     0
  9
$CMLSCALE
 40
1.0
  9
$PROXYGRAPHICS
 70
     1
  9
$MEASUREMENT
 70
     0
  9
$CELWEIGHT
370
    -1
  9
$ENDCAPS
280
     0
  9
$JOINSTYLE
280
     0
  9
$LWDISPLAY
290
     0
  9
$INSUNITS
 70
     5
  9
$HYPERLINKBASE
  1

  9
$STYLESHEET
  1

  9
$XEDIT
290
     1
  9
$CEPSNTYPE
380
     0
  9
$PSTYLEMODE
290
     1
  9
$FINGERPRINTGUID
  2
{f69059a0-8e3a-4ad0-ae22-4471d9541eac}
  9
$VERSIONGUID
  2
{FAEB1C32-E019-11D5-929B-00C0DF256EC4}
  9
$EXTNAMES
290
     1
  9
$PSVPSCALE
 40
0.0
  9
$OLESTARTUP
290
     0
  0
ENDSEC
  0
SECTION
  2
CLASSES
  0
CLASS
  1
ACDBDICTIONARYWDFLT
  2
AcDbDictionaryWithDefault
  3
ObjectDBX Classes
 90
        0
280
     0
281
     0
  0
CLASS
  1
VISUALSTYLE
  2
AcDbVisualStyle
  3
ObjectDBX Classes
 90
     4095
280
     0
281
     0
  0
CLASS
  1
MATERIAL
  2
AcDbMaterial
  3
ObjectDBX Classes
 90
     1153
280
     0
281
     0
  0
CLASS
  1
SCALE
  2
AcDbScale
  3
ObjectDBX Classes
 90
     1153
280
     0
281
     0
  0
CLASS
  1
TABLESTYLE
  2
AcDbTableStyle
  3
ObjectDBX Classes
 90
     4095
280
     0
281
     0
  0
CLASS
  1
MLEADERSTYLE
  2
AcDbMLeaderStyle
  3
ACDB_MLEADERSTYLE_CLASS
 90
     4095
280
     0
281
     0
  0
CLASS
  1
SUN
  2
AcDbSun
  3
SCENEOE
 90
     1153
280
     0
281
     0
  0
CLASS
  1
DICTIONARYVAR
  2
AcDbDictionaryVar
  3
ObjectDBX Classes
 90
        0
280
     0
281
     0
  0
CLASS
  1
ACDBPLACEHOLDER
  2
AcDbPlaceHolder
  3
ObjectDBX Classes
 90
        0
280
     0
281
     0
  0
CLASS
  1
LAYOUT
  2
AcDbLayout
  3
ObjectDBX Classes
 90
        0
280
     0
281
     0
  0
ENDSEC
  0
SECTION
  2
TABLES
  0
TABLE
  2
VPORT
  5
8
102
{ACAD_XDICTIONARY
360
8A
102
}
330
0
100
AcDbSymbolTable
 70
     1
  0
VPORT
  5
29
330
8
100
AcDbSymbolTableRecord
100
AcDbViewportTableRecord
  2
*Active
 70
     0
 10
0.0
 20
0.0
 11
1.0
 21
1.0
 12
10.42990654205607
 22
4.5
 13
0.0
 23
0.0
 14
0.5
 24
0.5
 15
0.5
 25
0.5
 16
0.0
 26
0.0
 36
1.0
 17
0.0
 27
0.0
 37
0.0
 40
9.0
 41
1.972972972850329
 42
50.0
 43
0.0
 44
0.0
 50
0.0
 51
0.0
 71
     0
 72
   100
 73
     1
 74
     3
 75
     0
 76
     0
 77
     0
 78
     0
281
     0
 65
     1
110
0.0
120
0.0
130
0.0
111
1.0
121
0.0
131
0.0
112
0.0
122
1.0
132
0.0
 79
     0
146
0.0
  0
ENDTAB
  0
TABLE
  2
LTYPE
  5
5
330
0
100
AcDbSymbolTable
 70
     1
  0
LTYPE
  5
14
330
5
100
AcDbSymbolTableRecord
100
AcDbLinetypeTableRecord
  2
ByBlock
 70
     0
  3

 72
    65
 73
     0
 40
0.0
  0
LTYPE
  5
15
330
5
100
AcDbSymbolTableRecord
100
AcDbLinetypeTableRecord
  2
ByLayer
 70
     0
  3

 72
    65
 73
     0
 40
0.0
  0
LTYPE
  5
16
330
5
100
AcDbSymbolTableRecord
100
AcDbLinetypeTableRecord
  2
Continuous
 70
     0
  3
Solid line
 72
    65
 73
     0
 40
0.0
  0
ENDTAB
  0
TABLE
  2
LAYER
  5
2
330
0
100
AcDbSymbolTable
 70
     2
  0
LAYER
  5
10
330
2
100
AcDbSymbolTableRecord
100
AcDbLayerTableRecord
  2
0
 70
     0
 62
     7
  6
Continuous
370
    -3
390
F
  0
LAYER
  5
6F
330
2
100
AcDbSymbolTableRecord
100
AcDbLayerTableRecord
  2
Plan 1
 70
     0
 62
     7
  6
Continuous
370
    -3
390
F
  0
ENDTAB
  0
TABLE
  2
STYLE
  5
3
330
0
100
AcDbSymbolTable
 70
     1
  0
STYLE
  5
11
330
3
100
AcDbSymbolTableRecord
100
AcDbTextStyleTableRecord
  2
Standard
 70
     0
 40
0.0
 41
1.0
 50
0.0
 71
     0
 42
0.2
  3
txt
  4

  0
ENDTAB
  0
TABLE
  2
VIEW
  5
6
330
0
100
AcDbSymbolTable
 70
     0
  0
ENDTAB
  0
TABLE
  2
UCS
  5
7
330
0
100
AcDbSymbolTable
 70
     0
  0
ENDTAB
  0
TABLE
  2
APPID
  5
9
330
0
100
AcDbSymbolTable
 70
     3
  0
APPID
  5
12
330
9
100
AcDbSymbolTableRecord
100
AcDbRegAppTableRecord
  2
ACAD
 70
     0
  0
APPID
  5
6E
330
9
100
AcDbSymbolTableRecord
100
AcDbRegAppTableRecord
  2
ODA
 70
     0
  0
APPID
  5
C4
330
9
100
AcDbSymbolTableRecord
100
AcDbRegAppTableRecord
  2
ACAD_MLEADERVER
 70
     0
  0
ENDTAB
  0
TABLE
  2
DIMSTYLE
  5
A
330
0
100
AcDbSymbolTable
 70
     1
100
AcDbDimStyleTable
  0
DIMSTYLE
105
27
330
A
100
AcDbSymbolTableRecord
100
AcDbDimStyleTableRecord
  2
Standard
 70
     0
178
     0
340
11
  0
ENDTAB
  0
TABLE
  2
BLOCK_RECORD
  5
1
330
0
100
AcDbSymbolTable
 70
     1
  0
BLOCK_RECORD
  5
1F
330
1
100
AcDbSymbolTableRecord
100
AcDbBlockTableRecord
  2
*Model_Space
340
22
  0
BLOCK_RECORD
  5
1B
330
1
100
AcDbSymbolTableRecord
100
AcDbBlockTableRecord
  2
*Paper_Space
340
1E
  0
BLOCK_RECORD
  5
23
330
1
100
AcDbSymbolTableRecord
100
AcDbBlockTableRecord
  2
*Paper_Space0
340
26
  0
ENDTAB
  0
ENDSEC
  0
SECTION
  2
BLOCKS
  0
BLOCK
  5
20
330
1F
100
AcDbEntity
  8
0
100
AcDbBlockBegin
  2
*Model_Space
 70
     0
 10
0.0
 20
0.0
 30
0.0
  3
*Model_Space
  1

  0
ENDBLK
  5
21
330
1F
100
AcDbEntity
  8
0
100
AcDbBlockEnd
  0
BLOCK
  5
1C
330
1B
100
AcDbEntity
 67
     1
  8
0
100
AcDbBlockBegin
  2
*Paper_Space
 70
     0
 10
0.0
 20
0.0
 30
0.0
  3
*Paper_Space
  1

  0
ENDBLK
  5
1D
330
1B
100
AcDbEntity
 67
     1
  8
0
100
AcDbBlockEnd
  0
BLOCK
  5
24
330
23
100
AcDbEntity
  8
0
100
AcDbBlockBegin
  2
*Paper_Space0
 70
     0
 10
0.0
 20
0.0
 30
0.0
  3
*Paper_Space0
  1

  0
ENDBLK
  5
25
330
23
100
AcDbEntity
  8
0
100
AcDbBlockEnd
  0
ENDSEC
  0
SECTION
  2
ENTITIES
  0
SPLINE
  5
70
330
1F
100
AcDbEntity
  8
Plan 1
 62
   250
370
    18
100
AcDbSpline
210
0.0
220
0.0
230
1.0
 70
    11
 71
     3
 72
    17
 73
    13
 74
     0
 42
0.0000000001
 43
0.0000000001
 40
0.0
 40
0.0
 40
0.0
 40
0.0
 40
0.25
 40
0.25
 40
0.25
 40
0.5
 40
0.5
 40
0.5
 40
0.75
 40
0.75
 40
0.75
 40
1.0
 40
1.0
 40
1.0
 40
1.0
 10
-2.17694
 20
6.9981
 30
0.0
 10
3.98921
 20
6.9981
 30
0.0
 10
8.98786
 20
1.72019
 30
0.0
 10
8.98786
 20
-4.79043
 30
0.0
 10
8.98786
 20
-11.30105
 30
0.0
 10
3.98921
 20
-16.57896
 30
0.0
 10
-2.17694
 20
-16.57896
 30
0.0
 10
-8.3431
 20
-16.57896
 30
0.0
 10
-13.34174
 20
-11.30105
 30
0.0
 10
-13.34174
 20
-4.79043
 30
0.0
 10
-13.34174
 20
1.72019
 30
0.0
 10
-8.3431
 20
6.9981
 30
0.0
 10
-2.17694
 20
6.9981
 30
0.0
  0
SPLINE
  5
71
330
1F
100
AcDbEntity
  8
Plan 1
 62
   250
370
    18
100
AcDbSpline
210
0.0
220
0.0
230
1.0
 70
    11
 71
     3
 72
    11
 73
     7
 74
     0
 42
0.0000000001
 43
0.0000000001
 40
0.0
 40
0.0
 40
0.0
 40
0.0
 40
0.5
 40
0.5
 40
0.5
 40
1.0
 40
1.0
 40
1.0
 40
1.0
 10
-7.15059
 20
-4.12251
 30
0.0
 10
-7.15019
 20
-4.12223
 30
0.0
 10
-7.14979
 20
-4.12196
 30
0.0
 10
-7.14939
 20
-4.12168
 30
0.0
 10
-7.14383
 20
-4.12145
 30
0.0
 10
-7.14423
 20
-4.12172
 30
0.0
 10
-7.15059
 20
-4.12251
 30
0.0
  0
SPLINE
  5
72
330
1F
100
AcDbEntity
  8
Plan 1
 62
   250
370
    18
100
AcDbSpline
210
0.0
220
0.0
230
1.0
 70
    11
 71
     3
 72
  2342
 73
  2338
 74
     0
 42
0.0000000001
 43
0.0000000001
 40
0.0
 40
0.0
 40
0.0
 40
0.0
 40
0.0012836970474968
 40
0.0012836970474968
 40
0.0012836970474968
 40
0.0025673940949936
 40
0.0025673940949936
 40
0.0025673940949936
 40
0.0038510911424904
 40
0.0038510911424904
 40
0.0038510911424904
 40
0.0051347881899872
 40
0.0051347881899872
 40
0.0051347881899872
 40
0.006418485237484
 40
0.006418485237484
 40
0.006418485237484
 40
0.0077021822849807
 40
0.0077021822849807
 40
0.0077021822849807
 40
0.0089858793324775
 40
0.0089858793324775
 40
0.0089858793324775
 40
0.0102695763799743
 40
0.0102695763799743
 40
0.0102695763799743
 40
0.0115532734274711
 40
0.0115532734274711
 40
0.0115532734274711
 40
0.0128369704749679
 40
0.0128369704749679
 40
0.0128369704749679
 40
0.0141206675224647
 40
0.0141206675224647
 40
0.0141206675224647
 40
0.0154043645699615
 40
0.0154043645699615
 40
0.0154043645699615
 40
0.0166880616174583
 40
0.0166880616174583
 40
0.0166880616174583
 40
0.0179717586649551
 40
0.0179717586649551
 40
0.0179717586649551
 40
0.0192554557124519
 40
0.0192554557124519
 40
0.0192554557124519
 40
0.0205391527599487
 40
0.0205391527599487
 40
0.0205391527599487
 40
0.0218228498074454
 40
0.0218228498074454
 40
0.0218228498074454
 40
0.0231065468549422
 40
0.0231065468549422
 40
0.0231065468549422
 40
0.024390243902439
 40
0.024390243902439
 40
0.024390243902439
 40
0.0256739409499358
 40
0.0256739409499358
 40
0.0256739409499358
 40
0.0269576379974326
 40
0.0269576379974326
 40
0.0269576379974326
 40
0.0282413350449294
 40
0.0282413350449294
 40
0.0282413350449294
 40
0.0295250320924262
 40
0.0295250320924262
 40
0.0295250320924262
 40
0.030808729139923
 40
0.030808729139923
 40
0.030808729139923
 40
0.0320924261874198
 40
0.0320924261874198
 40
0.0320924261874198
 40
0.0333761232349166
 40
0.0333761232349166
 40
0.0333761232349166
 40
0.0346598202824134
 40
0.0346598202824134
 40
0.0346598202824134
 40
0.0359435173299101
 40
0.0359435173299101
 40
0.0359435173299101
 40
0.0372272143774069
 40
0.0372272143774069
 40
0.0372272143774069
 40
0.0385109114249037
 40
0.0385109114249037
 40
0.0385109114249037
 40
0.0397946084724005
 40
0.0397946084724005
 40
0.0397946084724005
 40
0.0410783055198973
 40
0.0410783055198973
 40
0.0410783055198973
 40
0.0423620025673941
 40
0.0423620025673941
 40
0.0423620025673941
 40
0.0436456996148909
 40
0.0436456996148909
 40
0.0436456996148909
 40
0.0449293966623877
 40
0.0449293966623877
 40
0.0449293966623877
 40
0.0462130937098845
 40
0.0462130937098845
 40
0.0462130937098845
 40
0.0474967907573813
 40
0.0474967907573813
 40
0.0474967907573813
 40
0.048780487804878
 40
0.048780487804878
 40
0.048780487804878
 40
0.0500641848523748
 40
0.0500641848523748
 40
0.0500641848523748
 40
0.0513478818998716
 40
0.0513478818998716
 40
0.0513478818998716
 40
0.0526315789473684
 40
0.0526315789473684
 40
0.0526315789473684
 40
0.0539152759948652
 40
0.0539152759948652
 40
0.0539152759948652
 40
0.055198973042362
 40
0.055198973042362
 40
0.055198973042362
 40
0.0564826700898588
 40
0.0564826700898588
 40
0.0564826700898588
 40
0.0577663671373556
 40
0.0577663671373556
 40
0.0577663671373556
 40
0.0590500641848524
 40
0.0590500641848524
 40
0.0590500641848524
 40
0.0603337612323492
 40
0.0603337612323492
 40
0.0603337612323492
 40
0.061617458279846
 40
0.061617458279846
 40
0.061617458279846
 40
0.0629011553273427
 40
0.0629011553273427
 40
0.0629011553273427
 40
0.0641848523748395
 40
0.0641848523748395
 40
0.0641848523748395
 40
0.0654685494223363
 40
0.0654685494223363
 40
0.0654685494223363
 40
0.0667522464698331
 40
0.0667522464698331
 40
0.0667522464698331
 40
0.0680359435173299
 40
0.0680359435173299
 40
0.0680359435173299
 40
0.0693196405648267
 40
0.0693196405648267
 40
0.0693196405648267
 40
0.0706033376123235
 40
0.0706033376123235
 40
0.0706033376123235
 40
0.0718870346598203
 40
0.0718870346598203
 40
0.0718870346598203
 40
0.0731707317073171
 40
0.0731707317073171
 40
0.0731707317073171
 40
0.0744544287548139
 40
0.0744544287548139
 40
0.0744544287548139
 40
0.0757381258023107
 40
0.0757381258023107
 40
0.0757381258023107
 40
0.0770218228498074
 40
0.0770218228498074
 40
0.0770218228498074
 40
0.0783055198973042
 40
0.0783055198973042
 40
0.0783055198973042
 40
0.079589216944801
 40
0.079589216944801
 40
0.079589216944801
 40
0.0808729139922978
 40
0.0808729139922978
 40
0.0808729139922978
 40
0.0821566110397946
 40
0.0821566110397946
 40
0.0821566110397946
 40
0.0834403080872914
 40
0.0834403080872914
 40
0.0834403080872914
 40
0.0847240051347882
 40
0.0847240051347882
 40
0.0847240051347882
 40
0.086007702182285
 40
0.086007702182285
 40
0.086007702182285
 40
0.0872913992297818
 40
0.0872913992297818
 40
0.0872913992297818
 40
0.0885750962772786
 40
0.0885750962772786
 40
0.0885750962772786
 40
0.0898587933247754
 40
0.0898587933247754
 40
0.0898587933247754
 40
0.0911424903722721
 40
0.0911424903722721
 40
0.0911424903722721
 40
0.0924261874197689
 40
0.0924261874197689
 40
0.0924261874197689
 40
0.0937098844672657
 40
0.0937098844672657
 40
0.0937098844672657
 40
0.0949935815147625
 40
0.0949935815147625
 40
0.0949935815147625
 40
0.0962772785622593
 40
0.0962772785622593
 40
0.0962772785622593
 40
0.0975609756097561
 40
0.0975609756097561
 40
0.0975609756097561
 40
0.0988446726572529
 40
0.0988446726572529
 40
0.0988446726572529
 40
0.1001283697047497
 40
0.1001283697047497
 40
0.1001283697047497
 40
0.1014120667522465
 40
0.1014120667522465
 40
0.1014120667522465
 40
0.1026957637997433
 40
0.1026957637997433
 40
0.1026957637997433
 40
0.10397946084724
 40
0.10397946084724
 40
0.10397946084724
 40
0.1052631578947368
 40
0.1052631578947368
 40
0.1052631578947368
 40
0.1065468549422336
 40
0.1065468549422336
 40
0.1065468549422336
 40
0.1078305519897304
 40
0.1078305519897304
 40
0.1078305519897304
 40
0.1091142490372272
 40
0.1091142490372272
 40
0.1091142490372272
 40
0.110397946084724
 40
0.110397946084724
 40
0.110397946084724
 40
0.1116816431322208
 40
0.1116816431322208
 40
0.1116816431322208
 40
0.1129653401797176
 40
0.1129653401797176
 40
0.1129653401797176
 40
0.1142490372272144
 40
0.1142490372272144
 40
0.1142490372272144
 40
0.1155327342747112
 40
0.1155327342747112
 40
0.1155327342747112
 40
0.116816431322208
 40
0.116816431322208
 40
0.116816431322208
 40
0.1181001283697047
 40
0.1181001283697047
 40
0.1181001283697047
 40
0.1193838254172015
 40
0.1193838254172015
 40
0.1193838254172015
 40
0.1206675224646983
 40
0.1206675224646983
 40
0.1206675224646983
 40
0.1219512195121951
 40
0.1219512195121951
 40
0.1219512195121951
 40
0.1232349165596919
 40
0.1232349165596919
 40
0.1232349165596919
 40
0.1245186136071887
 40
0.1245186136071887
 40
0.1245186136071887
 40
0.1258023106546855
 40
0.1258023106546855
 40
0.1258023106546855
 40
0.1270860077021823
 40
0.1270860077021823
 40
0.1270860077021823
 40
0.1283697047496791
 40
0.1283697047496791
 40
0.1283697047496791
 40
0.1296534017971759
 40
0.1296534017971759
 40
0.1296534017971759
 40
0.1309370988446726
 40
0.1309370988446726
 40
0.1309370988446726
 40
0.1322207958921695
 40
0.1322207958921695
 40
0.1322207958921695
 40
0.1335044929396662
 40
0.1335044929396662
 40
0.1335044929396662
 40
0.134788189987163
 40
0.134788189987163
 40
0.134788189987163
 40
0.1360718870346598
 40
0.1360718870346598
 40
0.1360718870346598
 40
0.1373555840821566
 40
0.1373555840821566
 40
0.1373555840821566
 40
0.1386392811296534
 40
0.1386392811296534
 40
0.1386392811296534
 40
0.1399229781771502
 40
0.1399229781771502
 40
0.1399229781771502
 40
0.141206675224647
 40
0.141206675224647
 40
0.141206675224647
 40
0.1424903722721438
 40
0.1424903722721438
 40
0.1424903722721438
 40
0.1437740693196405
 40
0.1437740693196405
 40
0.1437740693196405
 40
0.1450577663671374
 40
0.1450577663671374
 40
0.1450577663671374
 40
0.1463414634146341
 40
0.1463414634146341
 40
0.1463414634146341
 40
0.1476251604621309
 40
0.1476251604621309
 40
0.1476251604621309
 40
0.1489088575096277
 40
0.1489088575096277
 40
0.1489088575096277
 40
0.1501925545571245
 40
0.1501925545571245
 40
0.1501925545571245
 40
0.1514762516046213
 40
0.1514762516046213
 40
0.1514762516046213
 40
0.1527599486521181
 40
0.1527599486521181
 40
0.1527599486521181
 40
0.1540436456996149
 40
0.1540436456996149
 40
0.1540436456996149
 40
0.1553273427471117
 40
0.1553273427471117
 40
0.1553273427471117
 40
0.1566110397946085
 40
0.1566110397946085
 40
0.1566110397946085
 40
0.1578947368421053
 40
0.1578947368421053
 40
0.1578947368421053
 40
0.159178433889602
 40
0.159178433889602
 40
0.159178433889602
 40
0.1604621309370988
 40
0.1604621309370988
 40
0.1604621309370988
 40
0.1617458279845956
 40
0.1617458279845956
 40
0.1617458279845956
 40
0.1630295250320924
 40
0.1630295250320924
 40
0.1630295250320924
 40
0.1643132220795892
 40
0.1643132220795892
 40
0.1643132220795892
 40
0.165596919127086
 40
0.165596919127086
 40
0.165596919127086
 40
0.1668806161745828
 40
0.1668806161745828
 40
0.1668806161745828
 40
0.1681643132220796
 40
0.1681643132220796
 40
0.1681643132220796
 40
0.1694480102695764
 40
0.1694480102695764
 40
0.1694480102695764
 40
0.1707317073170732
 40
0.1707317073170732
 40
0.1707317073170732
 40
0.1720154043645699
 40
0.1720154043645699
 40
0.1720154043645699
 40
0.1732991014120668
 40
0.1732991014120668
 40
0.1732991014120668
 40
0.1745827984595635
 40
0.1745827984595635
 40
0.1745827984595635
 40
0.1758664955070603
 40
0.1758664955070603
 40
0.1758664955070603
 40
0.1771501925545571
 40
0.1771501925545571
 40
0.1771501925545571
 40
0.1784338896020539
 40
0.1784338896020539
 40
0.1784338896020539
 40
0.1797175866495507
 40
0.1797175866495507
 40
0.1797175866495507
 40
0.1810012836970475
 40
0.1810012836970475
 40
0.1810012836970475
 40
0.1822849807445443
 40
0.1822849807445443
 40
0.1822849807445443
 40
0.1835686777920411
 40
0.1835686777920411
 40
0.1835686777920411
 40
0.1848523748395379
 40
0.1848523748395379
 40
0.1848523748395379
 40
0.1861360718870347
 40
0.1861360718870347
 40
0.1861360718870347
 40
0.1874197689345314
 40
0.1874197689345314
 40
0.1874197689345314
 40
0.1887034659820282
 40
0.1887034659820282
 40
0.1887034659820282
 40
0.189987163029525
 40
0.189987163029525
 40
0.189987163029525
 40
0.1912708600770218
 40
0.1912708600770218
 40
0.1912708600770218
 40
0.1925545571245186
 40
0.1925545571245186
 40
0.1925545571245186
 40
0.1938382541720154
 40
0.1938382541720154
 40
0.1938382541720154
 40
0.1951219512195122
 40
0.1951219512195122
 40
0.1951219512195122
 40
0.196405648267009
 40
0.196405648267009
 40
0.196405648267009
 40
0.1976893453145058
 40
0.1976893453145058
 40
0.1976893453145058
 40
0.1989730423620026
 40
0.1989730423620026
 40
0.1989730423620026
 40
0.2002567394094993
 40
0.2002567394094993
 40
0.2002567394094993
 40
0.2015404364569961
 40
0.2015404364569961
 40
0.2015404364569961
 40
0.2028241335044929
 40
0.2028241335044929
 40
0.2028241335044929
 40
0.2041078305519897
 40
0.2041078305519897
 40
0.2041078305519897
 40
0.2053915275994865
 40
0.2053915275994865
 40
0.2053915275994865
 40
0.2066752246469833
 40
0.2066752246469833
 40
0.2066752246469833
 40
0.2079589216944801
 40
0.2079589216944801
 40
0.2079589216944801
 40
0.2092426187419769
 40
0.2092426187419769
 40
0.2092426187419769
 40
0.2105263157894737
 40
0.2105263157894737
 40
0.2105263157894737
 40
0.2118100128369705
 40
0.2118100128369705
 40
0.2118100128369705
 40
0.2130937098844672
 40
0.2130937098844672
 40
0.2130937098844672
 40
0.2143774069319641
 40
0.2143774069319641
 40
0.2143774069319641
 40
0.2156611039794608
 40
0.2156611039794608
 40
0.2156611039794608
 40
0.2169448010269576
 40
0.2169448010269576
 40
0.2169448010269576
 40
0.2182284980744544
 40
0.2182284980744544
 40
0.2182284980744544
 40
0.2195121951219512
 40
0.2195121951219512
 40
0.2195121951219512
 40
0.220795892169448
 40
0.220795892169448
 40
0.220795892169448
 40
0.2220795892169448
 40
0.2220795892169448
 40
0.2220795892169448
 40
0.2233632862644416
 40
0.2233632862644416
 40
0.2233632862644416
 40
0.2246469833119384
 40
0.2246469833119384
 40
0.2246469833119384
 40
0.2259306803594351
 40
0.2259306803594351
 40
0.2259306803594351
 40
0.227214377406932
 40
0.227214377406932
 40
0.227214377406932
 40
0.2284980744544287
 40
0.2284980744544287
 40
0.2284980744544287
 40
0.2297817715019255
 40
0.2297817715019255
 40
0.2297817715019255
 40
0.2310654685494223
 40
0.2310654685494223
 40
0.2310654685494223
 40
0.2323491655969191
 40
0.2323491655969191
 40
0.2323491655969191
 40
0.2336328626444159
 40
0.2336328626444159
 40
0.2336328626444159
 40
0.2349165596919127
 40
0.2349165596919127
 40
0.2349165596919127
 40
0.2362002567394095
 40
0.2362002567394095
 40
0.2362002567394095
 40
0.2374839537869063
 40
0.2374839537869063
 40
0.2374839537869063
 40
0.2387676508344031
 40
0.2387676508344031
 40
0.2387676508344031
 40
0.2400513478818999
 40
0.2400513478818999
 40
0.2400513478818999
 40
0.2413350449293966
 40
0.2413350449293966
 40
0.2413350449293966
 40
0.2426187419768934
 40
0.2426187419768934
 40
0.2426187419768934
 40
0.2439024390243902
 40
0.2439024390243902
 40
0.2439024390243902
 40
0.245186136071887
 40
0.245186136071887
 40
0.245186136071887
 40
0.2464698331193838
 40
0.2464698331193838
 40
0.2464698331193838
 40
0.2477535301668806
 40
0.2477535301668806
 40
0.2477535301668806
 40
0.2490372272143774
 40
0.2490372272143774
 40
0.2490372272143774
 40
0.2503209242618742
 40
0.2503209242618742
 40
0.2503209242618742
 40
0.2516046213093709
 40
0.2516046213093709
 40
0.2516046213093709
 40
0.2528883183568678
 40
0.2528883183568678
 40
0.2528883183568678
 40
0.2541720154043646
 40
0.2541720154043646
 40
0.2541720154043646
 40
0.2554557124518613
 40
0.2554557124518613
 40
0.2554557124518613
 40
0.2567394094993581
 40
0.2567394094993581
 40
0.2567394094993581
 40
0.2580231065468549
 40
0.2580231065468549
 40
0.2580231065468549
 40
0.2593068035943517
 40
0.2593068035943517
 40
0.2593068035943517
 40
0.2605905006418485
 40
0.2605905006418485
 40
0.2605905006418485
 40
0.2618741976893453
 40
0.2618741976893453
 40
0.2618741976893453
 40
0.2631578947368421
 40
0.2631578947368421
 40
0.2631578947368421
 40
0.2644415917843389
 40
0.2644415917843389
 40
0.2644415917843389
 40
0.2657252888318357
 40
0.2657252888318357
 40
0.2657252888318357
 40
0.2670089858793325
 40
0.2670089858793325
 40
0.2670089858793325
 40
0.2682926829268292
 40
0.2682926829268292
 40
0.2682926829268292
 40
0.269576379974326
 40
0.269576379974326
 40
0.269576379974326
 40
0.2708600770218229
 40
0.2708600770218229
 40
0.2708600770218229
 40
0.2721437740693196
 40
0.2721437740693196
 40
0.2721437740693196
 40
0.2734274711168164
 40
0.2734274711168164
 40
0.2734274711168164
 40
0.2747111681643132
 40
0.2747111681643132
 40
0.2747111681643132
 40
0.27599486521181
 40
0.27599486521181
 40
0.27599486521181
 40
0.2772785622593068
 40
0.2772785622593068
 40
0.2772785622593068
 40
0.2785622593068036
 40
0.2785622593068036
 40
0.2785622593068036
 40
0.2798459563543004
 40
0.2798459563543004
 40
0.2798459563543004
 40
0.2811296534017971
 40
0.2811296534017971
 40
0.2811296534017971
 40
0.2824133504492939
 40
0.2824133504492939
 40
0.2824133504492939
 40
0.2836970474967908
 40
0.2836970474967908
 40
0.2836970474967908
 40
0.2849807445442875
 40
0.2849807445442875
 40
0.2849807445442875
 40
0.2862644415917843
 40
0.2862644415917843
 40
0.2862644415917843
 40
0.2875481386392811
 40
0.2875481386392811
 40
0.2875481386392811
 40
0.2888318356867779
 40
0.2888318356867779
 40
0.2888318356867779
 40
0.2901155327342747
 40
0.2901155327342747
 40
0.2901155327342747
 40
0.2913992297817715
 40
0.2913992297817715
 40
0.2913992297817715
 40
0.2926829268292683
 40
0.2926829268292683
 40
0.2926829268292683
 40
0.2939666238767651
 40
0.2939666238767651
 40
0.2939666238767651
 40
0.2952503209242618
 40
0.2952503209242618
 40
0.2952503209242618
 40
0.2965340179717587
 40
0.2965340179717587
 40
0.2965340179717587
 40
0.2978177150192554
 40
0.2978177150192554
 40
0.2978177150192554
 40
0.2991014120667522
 40
0.2991014120667522
 40
0.2991014120667522
 40
0.300385109114249
 40
0.300385109114249
 40
0.300385109114249
 40
0.3016688061617458
 40
0.3016688061617458
 40
0.3016688061617458
 40
0.3029525032092426
 40
0.3029525032092426
 40
0.3029525032092426
 40
0.3042362002567394
 40
0.3042362002567394
 40
0.3042362002567394
 40
0.3055198973042362
 40
0.3055198973042362
 40
0.3055198973042362
 40
0.306803594351733
 40
0.306803594351733
 40
0.306803594351733
 40
0.3080872913992297
 40
0.3080872913992297
 40
0.3080872913992297
 40
0.3093709884467266
 40
0.3093709884467266
 40
0.3093709884467266
 40
0.3106546854942233
 40
0.3106546854942233
 40
0.3106546854942233
 40
0.3119383825417201
 40
0.3119383825417201
 40
0.3119383825417201
 40
0.3132220795892169
 40
0.3132220795892169
 40
0.3132220795892169
 40
0.3145057766367137
 40
0.3145057766367137
 40
0.3145057766367137
 40
0.3157894736842105
 40
0.3157894736842105
 40
0.3157894736842105
 40
0.3170731707317073
 40
0.3170731707317073
 40
0.3170731707317073
 40
0.3183568677792041
 40
0.3183568677792041
 40
0.3183568677792041
 40
0.3196405648267009
 40
0.3196405648267009
 40
0.3196405648267009
 40
0.3209242618741976
 40
0.3209242618741976
 40
0.3209242618741976
 40
0.3222079589216945
 40
0.3222079589216945
 40
0.3222079589216945
 40
0.3234916559691913
 40
0.3234916559691913
 40
0.3234916559691913
 40
0.324775353016688
 40
0.324775353016688
 40
0.324775353016688
 40
0.3260590500641848
 40
0.3260590500641848
 40
0.3260590500641848
 40
0.3273427471116816
 40
0.3273427471116816
 40
0.3273427471116816
 40
0.3286264441591784
 40
0.3286264441591784
 40
0.3286264441591784
 40
0.3299101412066752
 40
0.3299101412066752
 40
0.3299101412066752
 40
0.331193838254172
 40
0.331193838254172
 40
0.331193838254172
 40
0.3324775353016688
 40
0.3324775353016688
 40
0.3324775353016688
 40
0.3337612323491655
 40
0.3337612323491655
 40
0.3337612323491655
 40
0.3350449293966624
 40
0.3350449293966624
 40
0.3350449293966624
 40
0.3363286264441592
 40
0.3363286264441592
 40
0.3363286264441592
 40
0.3376123234916559
 40
0.3376123234916559
 40
0.3376123234916559
 40
0.3388960205391527
 40
0.3388960205391527
 40
0.3388960205391527
 40
0.3401797175866495
 40
0.3401797175866495
 40
0.3401797175866495
 40
0.3414634146341463
 40
0.3414634146341463
 40
0.3414634146341463
 40
0.3427471116816431
 40
0.3427471116816431
 40
0.3427471116816431
 40
0.3440308087291399
 40
0.3440308087291399
 40
0.3440308087291399
 40
0.3453145057766367
 40
0.3453145057766367
 40
0.3453145057766367
 40
0.3465982028241335
 40
0.3465982028241335
 40
0.3465982028241335
 40
0.3478818998716303
 40
0.3478818998716303
 40
0.3478818998716303
 40
0.3491655969191271
 40
0.3491655969191271
 40
0.3491655969191271
 40
0.3504492939666238
 40
0.3504492939666238
 40
0.3504492939666238
 40
0.3517329910141206
 40
0.3517329910141206
 40
0.3517329910141206
 40
0.3530166880616175
 40
0.3530166880616175
 40
0.3530166880616175
 40
0.3543003851091142
 40
0.3543003851091142
 40
0.3543003851091142
 40
0.355584082156611
 40
0.355584082156611
 40
0.355584082156611
 40
0.3568677792041078
 40
0.3568677792041078
 40
0.3568677792041078
 40
0.3581514762516046
 40
0.3581514762516046
 40
0.3581514762516046
 40
0.3594351732991014
 40
0.3594351732991014
 40
0.3594351732991014
 40
0.3607188703465982
 40
0.3607188703465982
 40
0.3607188703465982
 40
0.362002567394095
 40
0.362002567394095
 40
0.362002567394095
 40
0.3632862644415917
 40
0.3632862644415917
 40
0.3632862644415917
 40
0.3645699614890885
 40
0.3645699614890885
 40
0.3645699614890885
 40
0.3658536585365854
 40
0.3658536585365854
 40
0.3658536585365854
 40
0.3671373555840821
 40
0.3671373555840821
 40
0.3671373555840821
 40
0.3684210526315789
 40
0.3684210526315789
 40
0.3684210526315789
 40
0.3697047496790757
 40
0.3697047496790757
 40
0.3697047496790757
 40
0.3709884467265725
 40
0.3709884467265725
 40
0.3709884467265725
 40
0.3722721437740693
 40
0.3722721437740693
 40
0.3722721437740693
 40
0.3735558408215661
 40
0.3735558408215661
 40
0.3735558408215661
 40
0.3748395378690629
 40
0.3748395378690629
 40
0.3748395378690629
 40
0.3761232349165597
 40
0.3761232349165597
 40
0.3761232349165597
 40
0.3774069319640564
 40
0.3774069319640564
 40
0.3774069319640564
 40
0.3786906290115533
 40
0.3786906290115533
 40
0.3786906290115533
 40
0.37997432605905
 40
0.37997432605905
 40
0.37997432605905
 40
0.3812580231065468
 40
0.3812580231065468
 40
0.3812580231065468
 40
0.3825417201540436
 40
0.3825417201540436
 40
0.3825417201540436
 40
0.3838254172015404
 40
0.3838254172015404
 40
0.3838254172015404
 40
0.3851091142490372
 40
0.3851091142490372
 40
0.3851091142490372
 40
0.386392811296534
 40
0.386392811296534
 40
0.386392811296534
 40
0.3876765083440308
 40
0.3876765083440308
 40
0.3876765083440308
 40
0.3889602053915276
 40
0.3889602053915276
 40
0.3889602053915276
 40
0.3902439024390243
 40
0.3902439024390243
 40
0.3902439024390243
 40
0.3915275994865212
 40
0.3915275994865212
 40
0.3915275994865212
 40
0.3928112965340179
 40
0.3928112965340179
 40
0.3928112965340179
 40
0.3940949935815147
 40
0.3940949935815147
 40
0.3940949935815147
 40
0.3953786906290115
 40
0.3953786906290115
 40
0.3953786906290115
 40
0.3966623876765083
 40
0.3966623876765083
 40
0.3966623876765083
 40
0.3979460847240051
 40
0.3979460847240051
 40
0.3979460847240051
 40
0.3992297817715019
 40
0.3992297817715019
 40
0.3992297817715019
 40
0.4005134788189987
 40
0.4005134788189987
 40
0.4005134788189987
 40
0.4017971758664955
 40
0.4017971758664955
 40
0.4017971758664955
 40
0.4030808729139922
 40
0.4030808729139922
 40
0.4030808729139922
 40
0.4043645699614891
 40
0.4043645699614891
 40
0.4043645699614891
 40
0.4056482670089859
 40
0.4056482670089859
 40
0.4056482670089859
 40
0.4069319640564826
 40
0.4069319640564826
 40
0.4069319640564826
 40
0.4082156611039794
 40
0.4082156611039794
 40
0.4082156611039794
 40
0.4094993581514762
 40
0.4094993581514762
 40
0.4094993581514762
 40
0.410783055198973
 40
0.410783055198973
 40
0.410783055198973
 40
0.4120667522464698
 40
0.4120667522464698
 40
0.4120667522464698
 40
0.4133504492939666
 40
0.4133504492939666
 40
0.4133504492939666
 40
0.4146341463414634
 40
0.4146341463414634
 40
0.4146341463414634
 40
0.4159178433889602
 40
0.4159178433889602
 40
0.4159178433889602
 40
0.417201540436457
 40
0.417201540436457
 40
0.417201540436457
 40
0.4184852374839538
 40
0.4184852374839538
 40
0.4184852374839538
 40
0.4197689345314505
 40
0.4197689345314505
 40
0.4197689345314505
 40
0.4210526315789473
 40
0.4210526315789473
 40
0.4210526315789473
 40
0.4223363286264441
 40
0.4223363286264441
 40
0.4223363286264441
 40
0.4236200256739409
 40
0.4236200256739409
 40
0.4236200256739409
 40
0.4249037227214377
 40
0.4249037227214377
 40
0.4249037227214377
 40
0.4261874197689345
 40
0.4261874197689345
 40
0.4261874197689345
 40
0.4274711168164313
 40
0.4274711168164313
 40
0.4274711168164313
 40
0.4287548138639281
 40
0.4287548138639281
 40
0.4287548138639281
 40
0.4300385109114249
 40
0.4300385109114249
 40
0.4300385109114249
 40
0.4313222079589217
 40
0.4313222079589217
 40
0.4313222079589217
 40
0.4326059050064184
 40
0.4326059050064184
 40
0.4326059050064184
 40
0.4338896020539152
 40
0.4338896020539152
 40
0.4338896020539152
 40
0.4351732991014121
 40
0.4351732991014121
 40
0.4351732991014121
 40
0.4364569961489088
 40
0.4364569961489088
 40
0.4364569961489088
 40
0.4377406931964056
 40
0.4377406931964056
 40
0.4377406931964056
 40
0.4390243902439024
 40
0.4390243902439024
 40
0.4390243902439024
 40
0.4403080872913992
 40
0.4403080872913992
 40
0.4403080872913992
 40
0.441591784338896
 40
0.441591784338896
 40
0.441591784338896
 40
0.4428754813863928
 40
0.4428754813863928
 40
0.4428754813863928
 40
0.4441591784338896
 40
0.4441591784338896
 40
0.4441591784338896
 40
0.4454428754813863
 40
0.4454428754813863
 40
0.4454428754813863
 40
0.4467265725288831
 40
0.4467265725288831
 40
0.4467265725288831
 40
0.44801026957638
 40
0.44801026957638
 40
0.44801026957638
 40
0.4492939666238767
 40
0.4492939666238767
 40
0.4492939666238767
 40
0.4505776636713735
 40
0.4505776636713735
 40
0.4505776636713735
 40
0.4518613607188703
 40
0.4518613607188703
 40
0.4518613607188703
 40
0.4531450577663671
 40
0.4531450577663671
 40
0.4531450577663671
 40
0.4544287548138639
 40
0.4544287548138639
 40
0.4544287548138639
 40
0.4557124518613607
 40
0.4557124518613607
 40
0.4557124518613607
 40
0.4569961489088575
 40
0.4569961489088575
 40
0.4569961489088575
 40
0.4582798459563543
 40
0.4582798459563543
 40
0.4582798459563543
 40
0.459563543003851
 40
0.459563543003851
 40
0.459563543003851
 40
0.4608472400513479
 40
0.4608472400513479
 40
0.4608472400513479
 40
0.4621309370988446
 40
0.4621309370988446
 40
0.4621309370988446
 40
0.4634146341463414
 40
0.4634146341463414
 40
0.4634146341463414
 40
0.4646983311938382
 40
0.4646983311938382
 40
0.4646983311938382
 40
0.465982028241335
 40
0.465982028241335
 40
0.465982028241335
 40
0.4672657252888318
 40
0.4672657252888318
 40
0.4672657252888318
 40
0.4685494223363286
 40
0.4685494223363286
 40
0.4685494223363286
 40
0.4698331193838254
 40
0.4698331193838254
 40
0.4698331193838254
 40
0.4711168164313222
 40
0.4711168164313222
 40
0.4711168164313222
 40
0.472400513478819
 40
0.472400513478819
 40
0.472400513478819
 40
0.4736842105263158
 40
0.4736842105263158
 40
0.4736842105263158
 40
0.4749679075738125
 40
0.4749679075738125
 40
0.4749679075738125
 40
0.4762516046213093
 40
0.4762516046213093
 40
0.4762516046213093
 40
0.4775353016688061
 40
0.4775353016688061
 40
0.4775353016688061
 40
0.4788189987163029
 40
0.4788189987163029
 40
0.4788189987163029
 40
0.4801026957637997
 40
0.4801026957637997
 40
0.4801026957637997
 40
0.4813863928112965
 40
0.4813863928112965
 40
0.4813863928112965
 40
0.4826700898587933
 40
0.4826700898587933
 40
0.4826700898587933
 40
0.4839537869062901
 40
0.4839537869062901
 40
0.4839537869062901
 40
0.4852374839537869
 40
0.4852374839537869
 40
0.4852374839537869
 40
0.4865211810012837
 40
0.4865211810012837
 40
0.4865211810012837
 40
0.4878048780487805
 40
0.4878048780487805
 40
0.4878048780487805
 40
0.4890885750962772
 40
0.4890885750962772
 40
0.4890885750962772
 40
0.490372272143774
 40
0.490372272143774
 40
0.490372272143774
 40
0.4916559691912708
 40
0.4916559691912708
 40
0.4916559691912708
 40
0.4929396662387676
 40
0.4929396662387676
 40
0.4929396662387676
 40
0.4942233632862644
 40
0.4942233632862644
 40
0.4942233632862644
 40
0.4955070603337612
 40
0.4955070603337612
 40
0.4955070603337612
 40
0.496790757381258
 40
0.496790757381258
 40
0.496790757381258
 40
0.4980744544287548
 40
0.4980744544287548
 40
0.4980744544287548
 40
0.4993581514762516
 40
0.4993581514762516
 40
0.4993581514762516
 40
0.5006418485237484
 40
0.5006418485237484
 40
0.5006418485237484
 40
0.5019255455712451
 40
0.5019255455712451
 40
0.5019255455712451
 40
0.5032092426187419
 40
0.5032092426187419
 40
0.5032092426187419
 40
0.5044929396662388
 40
0.5044929396662388
 40
0.5044929396662388
 40
0.5057766367137355
 40
0.5057766367137355
 40
0.5057766367137355
 40
0.5070603337612323
 40
0.5070603337612323
 40
0.5070603337612323
 40
0.5083440308087291
 40
0.5083440308087291
 40
0.5083440308087291
 40
0.5096277278562259
 40
0.5096277278562259
 40
0.5096277278562259
 40
0.5109114249037227
 40
0.5109114249037227
 40
0.5109114249037227
 40
0.5121951219512195
 40
0.5121951219512195
 40
0.5121951219512195
 40
0.5134788189987163
 40
0.5134788189987163
 40
0.5134788189987163
 40
0.514762516046213
 40
0.514762516046213
 40
0.514762516046213
 40
0.5160462130937098
 40
0.5160462130937098
 40
0.5160462130937098
 40
0.5173299101412067
 40
0.5173299101412067
 40
0.5173299101412067
 40
0.5186136071887034
 40
0.5186136071887034
 40
0.5186136071887034
 40
0.5198973042362002
 40
0.5198973042362002
 40
0.5198973042362002
 40
0.521181001283697
 40
0.521181001283697
 40
0.521181001283697
 40
0.5224646983311938
 40
0.5224646983311938
 40
0.5224646983311938
 40
0.5237483953786906
 40
0.5237483953786906
 40
0.5237483953786906
 40
0.5250320924261874
 40
0.5250320924261874
 40
0.5250320924261874
 40
0.5263157894736842
 40
0.5263157894736842
 40
0.5263157894736842
 40
0.5275994865211809
 40
0.5275994865211809
 40
0.5275994865211809
 40
0.5288831835686778
 40
0.5288831835686778
 40
0.5288831835686778
 40
0.5301668806161746
 40
0.5301668806161746
 40
0.5301668806161746
 40
0.5314505776636713
 40
0.5314505776636713
 40
0.5314505776636713
 40
0.5327342747111681
 40
0.5327342747111681
 40
0.5327342747111681
 40
0.5340179717586649
 40
0.5340179717586649
 40
0.5340179717586649
 40
0.5353016688061617
 40
0.5353016688061617
 40
0.5353016688061617
 40
0.5365853658536585
 40
0.5365853658536585
 40
0.5365853658536585
 40
0.5378690629011553
 40
0.5378690629011553
 40
0.5378690629011553
 40
0.5391527599486521
 40
0.5391527599486521
 40
0.5391527599486521
 40
0.5404364569961488
 40
0.5404364569961488
 40
0.5404364569961488
 40
0.5417201540436457
 40
0.5417201540436457
 40
0.5417201540436457
 40
0.5430038510911425
 40
0.5430038510911425
 40
0.5430038510911425
 40
0.5442875481386392
 40
0.5442875481386392
 40
0.5442875481386392
 40
0.545571245186136
 40
0.545571245186136
 40
0.545571245186136
 40
0.5468549422336328
 40
0.5468549422336328
 40
0.5468549422336328
 40
0.5481386392811296
 40
0.5481386392811296
 40
0.5481386392811296
 40
0.5494223363286264
 40
0.5494223363286264
 40
0.5494223363286264
 40
0.5507060333761232
 40
0.5507060333761232
 40
0.5507060333761232
 40
0.55198973042362
 40
0.55198973042362
 40
0.55198973042362
 40
0.5532734274711167
 40
0.5532734274711167
 40
0.5532734274711167
 40
0.5545571245186136
 40
0.5545571245186136
 40
0.5545571245186136
 40
0.5558408215661104
 40
0.5558408215661104
 40
0.5558408215661104
 40
0.5571245186136071
 40
0.5571245186136071
 40
0.5571245186136071
 40
0.558408215661104
 40
0.558408215661104
 40
0.558408215661104
 40
0.5596919127086007
 40
0.5596919127086007
 40
0.5596919127086007
 40
0.5609756097560975
 40
0.5609756097560975
 40
0.5609756097560975
 40
0.5622593068035943
 40
0.5622593068035943
 40
0.5622593068035943
 40
0.5635430038510911
 40
0.5635430038510911
 40
0.5635430038510911
 40
0.5648267008985879
 40
0.5648267008985879
 40
0.5648267008985879
 40
0.5661103979460846
 40
0.5661103979460846
 40
0.5661103979460846
 40
0.5673940949935815
 40
0.5673940949935815
 40
0.5673940949935815
 40
0.5686777920410783
 40
0.5686777920410783
 40
0.5686777920410783
 40
0.569961489088575
 40
0.569961489088575
 40
0.569961489088575
 40
0.5712451861360719
 40
0.5712451861360719
 40
0.5712451861360719
 40
0.5725288831835686
 40
0.5725288831835686
 40
0.5725288831835686
 40
0.5738125802310654
 40
0.5738125802310654
 40
0.5738125802310654
 40
0.5750962772785622
 40
0.5750962772785622
 40
0.5750962772785622
 40
0.576379974326059
 40
0.576379974326059
 40
0.576379974326059
 40
0.5776636713735558
 40
0.5776636713735558
 40
0.5776636713735558
 40
0.5789473684210525
 40
0.5789473684210525
 40
0.5789473684210525
 40
0.5802310654685494
 40
0.5802310654685494
 40
0.5802310654685494
 40
0.5815147625160462
 40
0.5815147625160462
 40
0.5815147625160462
 40
0.5827984595635429
 40
0.5827984595635429
 40
0.5827984595635429
 40
0.5840821566110398
 40
0.5840821566110398
 40
0.5840821566110398
 40
0.5853658536585366
 40
0.5853658536585366
 40
0.5853658536585366
 40
0.5866495507060333
 40
0.5866495507060333
 40
0.5866495507060333
 40
0.5879332477535302
 40
0.5879332477535302
 40
0.5879332477535302
 40
0.5892169448010269
 40
0.5892169448010269
 40
0.5892169448010269
 40
0.5905006418485237
 40
0.5905006418485237
 40
0.5905006418485237
 40
0.5917843388960204
 40
0.5917843388960204
 40
0.5917843388960204
 40
0.5930680359435173
 40
0.5930680359435173
 40
0.5930680359435173
 40
0.5943517329910141
 40
0.5943517329910141
 40
0.5943517329910141
 40
0.5956354300385108
 40
0.5956354300385108
 40
0.5956354300385108
 40
0.5969191270860077
 40
0.5969191270860077
 40
0.5969191270860077
 40
0.5982028241335045
 40
0.5982028241335045
 40
0.5982028241335045
 40
0.5994865211810012
 40
0.5994865211810012
 40
0.5994865211810012
 40
0.6007702182284981
 40
0.6007702182284981
 40
0.6007702182284981
 40
0.6020539152759948
 40
0.6020539152759948
 40
0.6020539152759948
 40
0.6033376123234916
 40
0.6033376123234916
 40
0.6033376123234916
 40
0.6046213093709885
 40
0.6046213093709885
 40
0.6046213093709885
 40
0.6059050064184852
 40
0.6059050064184852
 40
0.6059050064184852
 40
0.607188703465982
 40
0.607188703465982
 40
0.607188703465982
 40
0.6084724005134787
 40
0.6084724005134787
 40
0.6084724005134787
 40
0.6097560975609756
 40
0.6097560975609756
 40
0.6097560975609756
 40
0.6110397946084724
 40
0.6110397946084724
 40
0.6110397946084724
 40
0.6123234916559691
 40
0.6123234916559691
 40
0.6123234916559691
 40
0.613607188703466
 40
0.613607188703466
 40
0.613607188703466
 40
0.6148908857509627
 40
0.6148908857509627
 40
0.6148908857509627
 40
0.6161745827984595
 40
0.6161745827984595
 40
0.6161745827984595
 40
0.6174582798459564
 40
0.6174582798459564
 40
0.6174582798459564
 40
0.6187419768934531
 40
0.6187419768934531
 40
0.6187419768934531
 40
0.6200256739409499
 40
0.6200256739409499
 40
0.6200256739409499
 40
0.6213093709884466
 40
0.6213093709884466
 40
0.6213093709884466
 40
0.6225930680359435
 40
0.6225930680359435
 40
0.6225930680359435
 40
0.6238767650834403
 40
0.6238767650834403
 40
0.6238767650834403
 40
0.625160462130937
 40
0.625160462130937
 40
0.625160462130937
 40
0.6264441591784339
 40
0.6264441591784339
 40
0.6264441591784339
 40
0.6277278562259306
 40
0.6277278562259306
 40
0.6277278562259306
 40
0.6290115532734274
 40
0.6290115532734274
 40
0.6290115532734274
 40
0.6302952503209243
 40
0.6302952503209243
 40
0.6302952503209243
 40
0.631578947368421
 40
0.631578947368421
 40
0.631578947368421
 40
0.6328626444159178
 40
0.6328626444159178
 40
0.6328626444159178
 40
0.6341463414634146
 40
0.6341463414634146
 40
0.6341463414634146
 40
0.6354300385109114
 40
0.6354300385109114
 40
0.6354300385109114
 40
0.6367137355584082
 40
0.6367137355584082
 40
0.6367137355584082
 40
0.6379974326059049
 40
0.6379974326059049
 40
0.6379974326059049
 40
0.6392811296534018
 40
0.6392811296534018
 40
0.6392811296534018
 40
0.6405648267008985
 40
0.6405648267008985
 40
0.6405648267008985
 40
0.6418485237483953
 40
0.6418485237483953
 40
0.6418485237483953
 40
0.6431322207958922
 40
0.6431322207958922
 40
0.6431322207958922
 40
0.6444159178433889
 40
0.6444159178433889
 40
0.6444159178433889
 40
0.6456996148908857
 40
0.6456996148908857
 40
0.6456996148908857
 40
0.6469833119383825
 40
0.6469833119383825
 40
0.6469833119383825
 40
0.6482670089858793
 40
0.6482670089858793
 40
0.6482670089858793
 40
0.6495507060333761
 40
0.6495507060333761
 40
0.6495507060333761
 40
0.6508344030808728
 40
0.6508344030808728
 40
0.6508344030808728
 40
0.6521181001283697
 40
0.6521181001283697
 40
0.6521181001283697
 40
0.6534017971758664
 40
0.6534017971758664
 40
0.6534017971758664
 40
0.6546854942233632
 40
0.6546854942233632
 40
0.6546854942233632
 40
0.6559691912708601
 40
0.6559691912708601
 40
0.6559691912708601
 40
0.6572528883183568
 40
0.6572528883183568
 40
0.6572528883183568
 40
0.6585365853658536
 40
0.6585365853658536
 40
0.6585365853658536
 40
0.6598202824133504
 40
0.6598202824133504
 40
0.6598202824133504
 40
0.6611039794608472
 40
0.6611039794608472
 40
0.6611039794608472
 40
0.662387676508344
 40
0.662387676508344
 40
0.662387676508344
 40
0.6636713735558408
 40
0.6636713735558408
 40
0.6636713735558408
 40
0.6649550706033376
 40
0.6649550706033376
 40
0.6649550706033376
 40
0.6662387676508343
 40
0.6662387676508343
 40
0.6662387676508343
 40
0.6675224646983311
 40
0.6675224646983311
 40
0.6675224646983311
 40
0.668806161745828
 40
0.668806161745828
 40
0.668806161745828
 40
0.6700898587933247
 40
0.6700898587933247
 40
0.6700898587933247
 40
0.6713735558408215
 40
0.6713735558408215
 40
0.6713735558408215
 40
0.6726572528883183
 40
0.6726572528883183
 40
0.6726572528883183
 40
0.6739409499358151
 40
0.6739409499358151
 40
0.6739409499358151
 40
0.6752246469833119
 40
0.6752246469833119
 40
0.6752246469833119
 40
0.6765083440308087
 40
0.6765083440308087
 40
0.6765083440308087
 40
0.6777920410783055
 40
0.6777920410783055
 40
0.6777920410783055
 40
0.6790757381258022
 40
0.6790757381258022
 40
0.6790757381258022
 40
0.680359435173299
 40
0.680359435173299
 40
0.680359435173299
 40
0.6816431322207959
 40
0.6816431322207959
 40
0.6816431322207959
 40
0.6829268292682926
 40
0.6829268292682926
 40
0.6829268292682926
 40
0.6842105263157894
 40
0.6842105263157894
 40
0.6842105263157894
 40
0.6854942233632862
 40
0.6854942233632862
 40
0.6854942233632862
 40
0.686777920410783
 40
0.686777920410783
 40
0.686777920410783
 40
0.6880616174582798
 40
0.6880616174582798
 40
0.6880616174582798
 40
0.6893453145057766
 40
0.6893453145057766
 40
0.6893453145057766
 40
0.6906290115532734
 40
0.6906290115532734
 40
0.6906290115532734
 40
0.6919127086007701
 40
0.6919127086007701
 40
0.6919127086007701
 40
0.693196405648267
 40
0.693196405648267
 40
0.693196405648267
 40
0.6944801026957638
 40
0.6944801026957638
 40
0.6944801026957638
 40
0.6957637997432605
 40
0.6957637997432605
 40
0.6957637997432605
 40
0.6970474967907573
 40
0.6970474967907573
 40
0.6970474967907573
 40
0.6983311938382541
 40
0.6983311938382541
 40
0.6983311938382541
 40
0.6996148908857509
 40
0.6996148908857509
 40
0.6996148908857509
 40
0.7008985879332477
 40
0.7008985879332477
 40
0.7008985879332477
 40
0.7021822849807445
 40
0.7021822849807445
 40
0.7021822849807445
 40
0.7034659820282413
 40
0.7034659820282413
 40
0.7034659820282413
 40
0.704749679075738
 40
0.704749679075738
 40
0.704749679075738
 40
0.7060333761232349
 40
0.7060333761232349
 40
0.7060333761232349
 40
0.7073170731707317
 40
0.7073170731707317
 40
0.7073170731707317
 40
0.7086007702182284
 40
0.7086007702182284
 40
0.7086007702182284
 40
0.7098844672657252
 40
0.7098844672657252
 40
0.7098844672657252
 40
0.711168164313222
 40
0.711168164313222
 40
0.711168164313222
 40
0.7124518613607188
 40
0.7124518613607188
 40
0.7124518613607188
 40
0.7137355584082156
 40
0.7137355584082156
 40
0.7137355584082156
 40
0.7150192554557124
 40
0.7150192554557124
 40
0.7150192554557124
 40
0.7163029525032092
 40
0.7163029525032092
 40
0.7163029525032092
 40
0.717586649550706
 40
0.717586649550706
 40
0.717586649550706
 40
0.7188703465982028
 40
0.7188703465982028
 40
0.7188703465982028
 40
0.7201540436456996
 40
0.7201540436456996
 40
0.7201540436456996
 40
0.7214377406931963
 40
0.7214377406931963
 40
0.7214377406931963
 40
0.7227214377406932
 40
0.7227214377406932
 40
0.7227214377406932
 40
0.72400513478819
 40
0.72400513478819
 40
0.72400513478819
 40
0.7252888318356867
 40
0.7252888318356867
 40
0.7252888318356867
 40
0.7265725288831835
 40
0.7265725288831835
 40
0.7265725288831835
 40
0.7278562259306803
 40
0.7278562259306803
 40
0.7278562259306803
 40
0.7291399229781771
 40
0.7291399229781771
 40
0.7291399229781771
 40
0.7304236200256738
 40
0.7304236200256738
 40
0.7304236200256738
 40
0.7317073170731707
 40
0.7317073170731707
 40
0.7317073170731707
 40
0.7329910141206675
 40
0.7329910141206675
 40
0.7329910141206675
 40
0.7342747111681642
 40
0.7342747111681642
 40
0.7342747111681642
 40
0.7355584082156611
 40
0.7355584082156611
 40
0.7355584082156611
 40
0.7368421052631579
 40
0.7368421052631579
 40
0.7368421052631579
 40
0.7381258023106546
 40
0.7381258023106546
 40
0.7381258023106546
 40
0.7394094993581515
 40
0.7394094993581515
 40
0.7394094993581515
 40
0.7406931964056482
 40
0.7406931964056482
 40
0.7406931964056482
 40
0.741976893453145
 40
0.741976893453145
 40
0.741976893453145
 40
0.7432605905006417
 40
0.7432605905006417
 40
0.7432605905006417
 40
0.7445442875481386
 40
0.7445442875481386
 40
0.7445442875481386
 40
0.7458279845956354
 40
0.7458279845956354
 40
0.7458279845956354
 40
0.7471116816431321
 40
0.7471116816431321
 40
0.7471116816431321
 40
0.748395378690629
 40
0.748395378690629
 40
0.748395378690629
 40
0.7496790757381258
 40
0.7496790757381258
 40
0.7496790757381258
 40
0.7509627727856225
 40
0.7509627727856225
 40
0.7509627727856225
 40
0.7522464698331194
 40
0.7522464698331194
 40
0.7522464698331194
 40
0.7535301668806161
 40
0.7535301668806161
 40
0.7535301668806161
 40
0.7548138639281129
 40
0.7548138639281129
 40
0.7548138639281129
 40
0.7560975609756097
 40
0.7560975609756097
 40
0.7560975609756097
 40
0.7573812580231065
 40
0.7573812580231065
 40
0.7573812580231065
 40
0.7586649550706033
 40
0.7586649550706033
 40
0.7586649550706033
 40
0.7599486521181
 40
0.7599486521181
 40
0.7599486521181
 40
0.7612323491655969
 40
0.7612323491655969
 40
0.7612323491655969
 40
0.7625160462130937
 40
0.7625160462130937
 40
0.7625160462130937
 40
0.7637997432605904
 40
0.7637997432605904
 40
0.7637997432605904
 40
0.7650834403080873
 40
0.7650834403080873
 40
0.7650834403080873
 40
0.766367137355584
 40
0.766367137355584
 40
0.766367137355584
 40
0.7676508344030808
 40
0.7676508344030808
 40
0.7676508344030808
 40
0.7689345314505777
 40
0.7689345314505777
 40
0.7689345314505777
 40
0.7702182284980744
 40
0.7702182284980744
 40
0.7702182284980744
 40
0.7715019255455712
 40
0.7715019255455712
 40
0.7715019255455712
 40
0.7727856225930679
 40
0.7727856225930679
 40
0.7727856225930679
 40
0.7740693196405648
 40
0.7740693196405648
 40
0.7740693196405648
 40
0.7753530166880616
 40
0.7753530166880616
 40
0.7753530166880616
 40
0.7766367137355583
 40
0.7766367137355583
 40
0.7766367137355583
 40
0.7779204107830552
 40
0.7779204107830552
 40
0.7779204107830552
 40
0.7792041078305519
 40
0.7792041078305519
 40
0.7792041078305519
 40
0.7804878048780487
 40
0.7804878048780487
 40
0.7804878048780487
 40
0.7817715019255456
 40
0.7817715019255456
 40
0.7817715019255456
 40
0.7830551989730423
 40
0.7830551989730423
 40
0.7830551989730423
 40
0.7843388960205391
 40
0.7843388960205391
 40
0.7843388960205391
 40
0.7856225930680358
 40
0.7856225930680358
 40
0.7856225930680358
 40
0.7869062901155327
 40
0.7869062901155327
 40
0.7869062901155327
 40
0.7881899871630295
 40
0.7881899871630295
 40
0.7881899871630295
 40
0.7894736842105262
 40
0.7894736842105262
 40
0.7894736842105262
 40
0.7907573812580231
 40
0.7907573812580231
 40
0.7907573812580231
 40
0.7920410783055198
 40
0.7920410783055198
 40
0.7920410783055198
 40
0.7933247753530166
 40
0.7933247753530166
 40
0.7933247753530166
 40
0.7946084724005135
 40
0.7946084724005135
 40
0.7946084724005135
 40
0.7958921694480102
 40
0.7958921694480102
 40
0.7958921694480102
 40
0.797175866495507
 40
0.797175866495507
 40
0.797175866495507
 40
0.7984595635430038
 40
0.7984595635430038
 40
0.7984595635430038
 40
0.7997432605905006
 40
0.7997432605905006
 40
0.7997432605905006
 40
0.8010269576379974
 40
0.8010269576379974
 40
0.8010269576379974
 40
0.8023106546854941
 40
0.8023106546854941
 40
0.8023106546854941
 40
0.803594351732991
 40
0.803594351732991
 40
0.803594351732991
 40
0.8048780487804877
 40
0.8048780487804877
 40
0.8048780487804877
 40
0.8061617458279845
 40
0.8061617458279845
 40
0.8061617458279845
 40
0.8074454428754814
 40
0.8074454428754814
 40
0.8074454428754814
 40
0.8087291399229781
 40
0.8087291399229781
 40
0.8087291399229781
 40
0.8100128369704749
 40
0.8100128369704749
 40
0.8100128369704749
 40
0.8112965340179717
 40
0.8112965340179717
 40
0.8112965340179717
 40
0.8125802310654685
 40
0.8125802310654685
 40
0.8125802310654685
 40
0.8138639281129653
 40
0.8138639281129653
 40
0.8138639281129653
 40
0.815147625160462
 40
0.815147625160462
 40
0.815147625160462
 40
0.8164313222079589
 40
0.8164313222079589
 40
0.8164313222079589
 40
0.8177150192554556
 40
0.8177150192554556
 40
0.8177150192554556
 40
0.8189987163029524
 40
0.8189987163029524
 40
0.8189987163029524
 40
0.8202824133504493
 40
0.8202824133504493
 40
0.8202824133504493
 40
0.821566110397946
 40
0.821566110397946
 40
0.821566110397946
 40
0.8228498074454428
 40
0.8228498074454428
 40
0.8228498074454428
 40
0.8241335044929397
 40
0.8241335044929397
 40
0.8241335044929397
 40
0.8254172015404364
 40
0.8254172015404364
 40
0.8254172015404364
 40
0.8267008985879332
 40
0.8267008985879332
 40
0.8267008985879332
 40
0.82798459563543
 40
0.82798459563543
 40
0.82798459563543
 40
0.8292682926829268
 40
0.8292682926829268
 40
0.8292682926829268
 40
0.8305519897304235
 40
0.8305519897304235
 40
0.8305519897304235
 40
0.8318356867779203
 40
0.8318356867779203
 40
0.8318356867779203
 40
0.8331193838254172
 40
0.8331193838254172
 40
0.8331193838254172
 40
0.8344030808729139
 40
0.8344030808729139
 40
0.8344030808729139
 40
0.8356867779204107
 40
0.8356867779204107
 40
0.8356867779204107
 40
0.8369704749679076
 40
0.8369704749679076
 40
0.8369704749679076
 40
0.8382541720154043
 40
0.8382541720154043
 40
0.8382541720154043
 40
0.8395378690629011
 40
0.8395378690629011
 40
0.8395378690629011
 40
0.8408215661103979
 40
0.8408215661103979
 40
0.8408215661103979
 40
0.8421052631578947
 40
0.8421052631578947
 40
0.8421052631578947
 40
0.8433889602053914
 40
0.8433889602053914
 40
0.8433889602053914
 40
0.8446726572528882
 40
0.8446726572528882
 40
0.8446726572528882
 40
0.8459563543003851
 40
0.8459563543003851
 40
0.8459563543003851
 40
0.8472400513478818
 40
0.8472400513478818
 40
0.8472400513478818
 40
0.8485237483953786
 40
0.8485237483953786
 40
0.8485237483953786
 40
0.8498074454428755
 40
0.8498074454428755
 40
0.8498074454428755
 40
0.8510911424903722
 40
0.8510911424903722
 40
0.8510911424903722
 40
0.852374839537869
 40
0.852374839537869
 40
0.852374839537869
 40
0.8536585365853658
 40
0.8536585365853658
 40
0.8536585365853658
 40
0.8549422336328626
 40
0.8549422336328626
 40
0.8549422336328626
 40
0.8562259306803593
 40
0.8562259306803593
 40
0.8562259306803593
 40
0.8575096277278562
 40
0.8575096277278562
 40
0.8575096277278562
 40
0.858793324775353
 40
0.858793324775353
 40
0.858793324775353
 40
0.8600770218228497
 40
0.8600770218228497
 40
0.8600770218228497
 40
0.8613607188703465
 40
0.8613607188703465
 40
0.8613607188703465
 40
0.8626444159178434
 40
0.8626444159178434
 40
0.8626444159178434
 40
0.8639281129653401
 40
0.8639281129653401
 40
0.8639281129653401
 40
0.8652118100128369
 40
0.8652118100128369
 40
0.8652118100128369
 40
0.8664955070603337
 40
0.8664955070603337
 40
0.8664955070603337
 40
0.8677792041078305
 40
0.8677792041078305
 40
0.8677792041078305
 40
0.8690629011553272
 40
0.8690629011553272
 40
0.8690629011553272
 40
0.8703465982028241
 40
0.8703465982028241
 40
0.8703465982028241
 40
0.8716302952503209
 40
0.8716302952503209
 40
0.8716302952503209
 40
0.8729139922978176
 40
0.8729139922978176
 40
0.8729139922978176
 40
0.8741976893453144
 40
0.8741976893453144
 40
0.8741976893453144
 40
0.8754813863928113
 40
0.8754813863928113
 40
0.8754813863928113
 40
0.876765083440308
 40
0.876765083440308
 40
0.876765083440308
 40
0.8780487804878048
 40
0.8780487804878048
 40
0.8780487804878048
 40
0.8793324775353016
 40
0.8793324775353016
 40
0.8793324775353016
 40
0.8806161745827984
 40
0.8806161745827984
 40
0.8806161745827984
 40
0.8818998716302952
 40
0.8818998716302952
 40
0.8818998716302952
 40
0.883183568677792
 40
0.883183568677792
 40
0.883183568677792
 40
0.8844672657252888
 40
0.8844672657252888
 40
0.8844672657252888
 40
0.8857509627727855
 40
0.8857509627727855
 40
0.8857509627727855
 40
0.8870346598202824
 40
0.8870346598202824
 40
0.8870346598202824
 40
0.8883183568677792
 40
0.8883183568677792
 40
0.8883183568677792
 40
0.8896020539152759
 40
0.8896020539152759
 40
0.8896020539152759
 40
0.8908857509627727
 40
0.8908857509627727
 40
0.8908857509627727
 40
0.8921694480102695
 40
0.8921694480102695
 40
0.8921694480102695
 40
0.8934531450577663
 40
0.8934531450577663
 40
0.8934531450577663
 40
0.894736842105263
 40
0.894736842105263
 40
0.894736842105263
 40
0.8960205391527599
 40
0.8960205391527599
 40
0.8960205391527599
 40
0.8973042362002567
 40
0.8973042362002567
 40
0.8973042362002567
 40
0.8985879332477534
 40
0.8985879332477534
 40
0.8985879332477534
 40
0.8998716302952503
 40
0.8998716302952503
 40
0.8998716302952503
 40
0.9011553273427471
 40
0.9011553273427471
 40
0.9011553273427471
 40
0.9024390243902438
 40
0.9024390243902438
 40
0.9024390243902438
 40
0.9037227214377406
 40
0.9037227214377406
 40
0.9037227214377406
 40
0.9050064184852374
 40
0.9050064184852374
 40
0.9050064184852374
 40
0.9062901155327342
 40
0.9062901155327342
 40
0.9062901155327342
 40
0.907573812580231
 40
0.907573812580231
 40
0.907573812580231
 40
0.9088575096277278
 40
0.9088575096277278
 40
0.9088575096277278
 40
0.9101412066752246
 40
0.9101412066752246
 40
0.9101412066752246
 40
0.9114249037227213
 40
0.9114249037227213
 40
0.9114249037227213
 40
0.9127086007702182
 40
0.9127086007702182
 40
0.9127086007702182
 40
0.913992297817715
 40
0.913992297817715
 40
0.913992297817715
 40
0.9152759948652117
 40
0.9152759948652117
 40
0.9152759948652117
 40
0.9165596919127086
 40
0.9165596919127086
 40
0.9165596919127086
 40
0.9178433889602053
 40
0.9178433889602053
 40
0.9178433889602053
 40
0.9191270860077021
 40
0.9191270860077021
 40
0.9191270860077021
 40
0.9204107830551989
 40
0.9204107830551989
 40
0.9204107830551989
 40
0.9216944801026957
 40
0.9216944801026957
 40
0.9216944801026957
 40
0.9229781771501925
 40
0.9229781771501925
 40
0.9229781771501925
 40
0.9242618741976892
 40
0.9242618741976892
 40
0.9242618741976892
 40
0.9255455712451861
 40
0.9255455712451861
 40
0.9255455712451861
 40
0.9268292682926829
 40
0.9268292682926829
 40
0.9268292682926829
 40
0.9281129653401796
 40
0.9281129653401796
 40
0.9281129653401796
 40
0.9293966623876765
 40
0.9293966623876765
 40
0.9293966623876765
 40
0.9306803594351732
 40
0.9306803594351732
 40
0.9306803594351732
 40
0.93196405648267
 40
0.93196405648267
 40
0.93196405648267
 40
0.9332477535301669
 40
0.9332477535301669
 40
0.9332477535301669
 40
0.9345314505776636
 40
0.9345314505776636
 40
0.9345314505776636
 40
0.9358151476251604
 40
0.9358151476251604
 40
0.9358151476251604
 40
0.9370988446726571
 40
0.9370988446726571
 40
0.9370988446726571
 40
0.938382541720154
 40
0.938382541720154
 40
0.938382541720154
 40
0.9396662387676508
 40
0.9396662387676508
 40
0.9396662387676508
 40
0.9409499358151475
 40
0.9409499358151475
 40
0.9409499358151475
 40
0.9422336328626444
 40
0.9422336328626444
 40
0.9422336328626444
 40
0.9435173299101411
 40
0.9435173299101411
 40
0.9435173299101411
 40
0.9448010269576379
 40
0.9448010269576379
 40
0.9448010269576379
 40
0.9460847240051348
 40
0.9460847240051348
 40
0.9460847240051348
 40
0.9473684210526315
 40
0.9473684210526315
 40
0.9473684210526315
 40
0.9486521181001283
 40
0.9486521181001283
 40
0.9486521181001283
 40
0.949935815147625
 40
0.949935815147625
 40
0.949935815147625
 40
0.9512195121951219
 40
0.9512195121951219
 40
0.9512195121951219
 40
0.9525032092426187
 40
0.9525032092426187
 40
0.9525032092426187
 40
0.9537869062901154
 40
0.9537869062901154
 40
0.9537869062901154
 40
0.9550706033376123
 40
0.9550706033376123
 40
0.9550706033376123
 40
0.956354300385109
 40
0.956354300385109
 40
0.956354300385109
 40
0.9576379974326058
 40
0.9576379974326058
 40
0.9576379974326058
 40
0.9589216944801027
 40
0.9589216944801027
 40
0.9589216944801027
 40
0.9602053915275994
 40
0.9602053915275994
 40
0.9602053915275994
 40
0.9614890885750962
 40
0.9614890885750962
 40
0.9614890885750962
 40
0.962772785622593
 40
0.962772785622593
 40
0.962772785622593
 40
0.9640564826700898
 40
0.9640564826700898
 40
0.9640564826700898
 40
0.9653401797175866
 40
0.9653401797175866
 40
0.9653401797175866
 40
0.9666238767650833
 40
0.9666238767650833
 40
0.9666238767650833
 40
0.9679075738125802
 40
0.9679075738125802
 40
0.9679075738125802
 40
0.969191270860077
 40
0.969191270860077
 40
0.969191270860077
 40
0.9704749679075737
 40
0.9704749679075737
 40
0.9704749679075737
 40
0.9717586649550706
 40
0.9717586649550706
 40
0.9717586649550706
 40
0.9730423620025673
 40
0.9730423620025673
 40
0.9730423620025673
 40
0.9743260590500641
 40
0.9743260590500641
 40
0.9743260590500641
 40
0.975609756097561
 40
0.975609756097561
 40
0.975609756097561
 40
0.9768934531450577
 40
0.9768934531450577
 40
0.9768934531450577
 40
0.9781771501925545
 40
0.9781771501925545
 40
0.9781771501925545
 40
0.9794608472400512
 40
0.9794608472400512
 40
0.9794608472400512
 40
0.9807445442875481
 40
0.9807445442875481
 40
0.9807445442875481
 40
0.9820282413350448
 40
0.9820282413350448
 40
0.9820282413350448
 40
0.9833119383825416
 40
0.9833119383825416
 40
0.9833119383825416
 40
0.9845956354300385
 40
0.9845956354300385
 40
0.9845956354300385
 40
0.9858793324775352
 40
0.9858793324775352
 40
0.9858793324775352
 40
0.987163029525032
 40
0.987163029525032
 40
0.987163029525032
 40
0.9884467265725289
 40
0.9884467265725289
 40
0.9884467265725289
 40
0.9897304236200256
 40
0.9897304236200256
 40
0.9897304236200256
 40
0.9910141206675224
 40
0.9910141206675224
 40
0.9910141206675224
 40
0.9922978177150192
 40
0.9922978177150192
 40
0.9922978177150192
 40
0.993581514762516
 40
0.993581514762516
 40
0.993581514762516
 40
0.9948652118100128
 40
0.9948652118100128
 40
0.9948652118100128
 40
0.9961489088575095
 40
0.9961489088575095
 40
0.9961489088575095
 40
0.9974326059050064
 40
0.9974326059050064
 40
0.9974326059050064
 40
0.9987163029525031
 40
0.9987163029525031
 40
0.9987163029525031
 40
1.0
 40
1.0
 40
1.0
 40
1.0
 10
1.70006
 20
4.22785
 30
0.0
 10
1.70006
 20
4.22785
 30
0.0
 10
2.01104
 20
3.12771
 30
0.0
 10
2.01104
 20
3.12771
 30
0.0
 10
2.06931
 20
2.81259
 30
0.0
 10
2.10069
 20
2.55776
 30
0.0
 10
2.10514
 20
2.36324
 30
0.0
 10
2.11644
 20
1.86863
 30
0.0
 10
2.03121
 20
1.35197
 30
0.0
 10
2.09168
 20
0.81945
 30
0.0
 10
2.09168
 20
0.81945
 30
0.0
 10
1.98289
 20
0.79162
 30
0.0
 10
1.98289
 20
0.79162
 30
0.0
 10
1.98289
 20
0.79162
 30
0.0
 10
1.96465
 20
1.04804
 30
0.0
 10
1.96465
 20
1.04804
 30
0.0
 10
1.94156
 20
0.91594
 30
0.0
 10
1.89994
 20
0.77245
 30
0.0
 10
1.83981
 20
0.61757
 30
0.0
 10
1.83981
 20
0.61757
 30
0.0
 10
1.6499
 20
0.66059
 30
0.0
 10
1.6499
 20
0.66059
 30
0.0
 10
1.69888
 20
0.7093
 30
0.0
 10
1.72907
 20
0.75984
 30
0.0
 10
1.74047
 20
0.81217
 30
0.0
 10
1.66791
 20
0.79258
 30
0.0
 10
1.60481
 20
0.76062
 30
0.0
 10
1.5512
 20
0.71631
 30
0.0
 10
1.5512
 20
0.71631
 30
0.0
 10
1.51987
 20
0.83393
 30
0.0
 10
1.51987
 20
0.83393
 30
0.0
 10
1.6516
 20
0.91811
 30
0.0
 10
1.73423
 20
1.02976
 30
0.0
 10
1.76774
 20
1.16886
 30
0.0
 10
1.54024
 20
1.09382
 30
0.0
 10
1.38755
 20
0.94958
 30
0.0
 10
1.30968
 20
0.73614
 30
0.0
 10
1.37464
 20
0.75794
 30
0.0
 10
1.43296
 20
0.78347
 30
0.0
 10
1.4846
 20
0.81272
 30
0.0
 10
1.4846
 20
0.81272
 30
0.0
 10
1.52165
 20
0.68969
 30
0.0
 10
1.52165
 20
0.68969
 30
0.0
 10
1.46916
 20
0.63824
 30
0.0
 10
1.42709
 20
0.57315
 30
0.0
 10
1.39547
 20
0.49445
 30
0.0
 10
1.48543
 20
0.53712
 30
0.0
 10
1.55806
 20
0.58146
 30
0.0
 10
1.61335
 20
0.62745
 30
0.0
 10
1.61335
 20
0.62745
 30
0.0
 10
1.82548
 20
0.58134
 30
0.0
 10
1.82548
 20
0.58134
 30
0.0
 10
1.80716
 20
0.53581
 30
0.0
 10
1.78728
 20
0.4893
 30
0.0
 10
1.76583
 20
0.44184
 30
0.0
 10
1.87411
 20
0.45029
 30
0.0
 10
1.95273
 20
0.47888
 30
0.0
 10
2.00168
 20
0.5276
 30
0.0
 10
2.00168
 20
0.5276
 30
0.0
 10
1.98573
 20
0.7518
 30
0.0
 10
1.98573
 20
0.7518
 30
0.0
 10
1.98573
 20
0.7518
 30
0.0
 10
2.0966
 20
0.77859
 30
0.0
 10
2.0966
 20
0.77859
 30
0.0
 10
2.10304
 20
0.72815
 30
0.0
 10
2.11084
 20
0.67758
 30
0.0
 10
2.1202
 20
0.62688
 30
0.0
 10
2.1202
 20
0.62688
 30
0.0
 10
2.31318
 20
0.79449
 30
0.0
 10
2.31318
 20
0.79449
 30
0.0
 10
2.27115
 20
0.60204
 30
0.0
 10
2.20293
 20
0.45974
 30
0.0
 10
2.10851
 20
0.36762
 30
0.0
 10
2.23831
 20
0.36626
 30
0.0
 10
2.38059
 20
0.3851
 30
0.0
 10
2.53537
 20
0.42413
 30
0.0
 10
2.45515
 20
0.28857
 30
0.0
 10
2.35639
 20
0.195
 30
0.0
 10
2.2391
 20
0.14343
 30
0.0
 10
2.36856
 20
0.15695
 30
0.0
 10
2.48811
 20
0.18619
 30
0.0
 10
2.59773
 20
0.23112
 30
0.0
 10
2.59773
 20
0.23112
 30
0.0
 10
2.39305
 20
-0.31467
 30
0.0
 10
2.39305
 20
-0.31467
 30
0.0
 10
2.39305
 20
-0.31467
 30
0.0
 10
2.48078
 20
-0.31662
 30
0.0
 10
2.48078
 20
-0.31662
 30
0.0
 10
2.48078
 20
-0.31662
 30
0.0
 10
2.38329
 20
-0.63046
 30
0.0
 10
2.38329
 20
-0.63046
 30
0.0
 10
2.39403
 20
-0.74235
 30
0.0
 10
2.39403
 20
-0.82551
 30
0.0
 10
2.38329
 20
-0.87995
 30
0.0
 10
2.52332
 20
-0.95294
 30
0.0
 10
2.59088
 20
-1.10368
 30
0.0
 10
2.58599
 20
-1.33219
 30
0.0
 10
2.66596
 20
-1.25352
 30
0.0
 10
2.72574
 20
-1.21844
 30
0.0
 10
2.76532
 20
-1.22694
 30
0.0
 10
2.65482
 20
-1.47511
 30
0.0
 10
2.61713
 20
-1.65573
 30
0.0
 10
2.65226
 20
-1.76882
 30
0.0
 10
2.70472
 20
-1.68506
 30
0.0
 10
2.745
 20
-1.65129
 30
0.0
 10
2.7731
 20
-1.66751
 30
0.0
 10
2.70892
 20
-1.76273
 30
0.0
 10
2.66978
 20
-1.87868
 30
0.0
 10
2.64889
 20
-2.00634
 30
0.0
 10
2.64889
 20
-2.00634
 30
0.0
 10
2.52381
 20
-1.98202
 30
0.0
 10
2.52381
 20
-1.98202
 30
0.0
 10
2.5152
 20
-1.73226
 30
0.0
 10
2.47491
 20
-1.55001
 30
0.0
 10
2.40296
 20
-1.43531
 30
0.0
 10
2.26888
 20
-1.20749
 30
0.0
 10
2.10385
 20
-1.12499
 30
0.0
 10
1.90785
 20
-1.18778
 30
0.0
 10
1.9944
 20
-1.28451
 30
0.0
 10
2.09772
 20
-1.38521
 30
0.0
 10
2.2178
 20
-1.48986
 30
0.0
 10
2.2178
 20
-1.48986
 30
0.0
 10
2.08721
 20
-1.49376
 30
0.0
 10
2.08721
 20
-1.49376
 30
0.0
 10
2.30327
 20
-1.71544
 30
0.0
 10
2.4488
 20
-1.9513
 30
0.0
 10
2.5238
 20
-2.20134
 30
0.0
 10
2.52561
 20
-2.14146
 30
0.0
 10
2.52602
 20
-2.08453
 30
0.0
 10
2.52508
 20
-2.03054
 30
0.0
 10
2.52508
 20
-2.03054
 30
0.0
 10
2.6424
 20
-2.05078
 30
0.0
 10
2.6424
 20
-2.05078
 30
0.0
 10
2.62283
 20
-2.20255
 30
0.0
 10
2.62692
 20
-2.36884
 30
0.0
 10
2.64386
 20
-2.53544
 30
0.0
 10
2.61427
 20
-2.53684
 30
0.0
 10
2.58263
 20
-2.53872
 30
0.0
 10
2.54894
 20
-2.54107
 30
0.0
 10
2.54214
 20
-2.52528
 30
0.0
 10
2.53431
 20
-2.50905
 30
0.0
 10
2.5255
 20
-2.49237
 30
0.0
 10
2.5255
 20
-2.49237
 30
0.0
 10
2.41325
 20
-2.23215
 30
0.0
 10
2.41325
 20
-2.23215
 30
0.0
 10
2.22695
 20
-1.74033
 30
0.0
 10
1.7607
 20
-2.8637
 30
0.0
 10
1.8634
 20
-2.29553
 30
0.0
 10
1.93704
 20
-2.05587
 30
0.0
 10
2.06646
 20
-2.02551
 30
0.0
 10
2.00274
 20
-1.74175
 30
0.0
 10
1.97333
 20
-1.67542
 30
0.0
 10
1.95802
 20
-1.59021
 30
0.0
 10
1.94234
 20
-1.51867
 30
0.0
 10
1.84031
 20
-1.05394
 30
0.0
 10
1.54378
 20
-1.41569
 30
0.0
 10
1.57163
 20
-1.09146
 30
0.0
 10
1.49843
 20
-1.12968
 30
0.0
 10
1.48768
 20
-1.18616
 30
0.0
 10
1.53936
 20
-1.2609
 30
0.0
 10
1.81495
 20
-1.5597
 30
0.0
 10
1.53686
 20
-1.89657
 30
0.0
 10
1.19044
 20
-1.71019
 30
0.0
 10
1.32905
 20
-1.90671
 30
0.0
 10
1.43393
 20
-2.12358
 30
0.0
 10
1.50503
 20
-2.36082
 30
0.0
 10
1.57294
 20
-2.58735
 30
0.0
 10
1.63629
 20
-2.63085
 30
0.0
 10
1.83591
 20
-2.78097
 30
0.0
 10
1.83591
 20
-2.78097
 30
0.0
 10
2.64619
 20
-3.37892
 30
0.0
 10
2.64619
 20
-3.37892
 30
0.0
 10
2.62003
 20
-3.24628
 30
0.0
 10
2.58234
 20
-3.11114
 30
0.0
 10
2.53313
 20
-2.9735
 30
0.0
 10
2.49854
 20
-2.87529
 30
0.0
 10
2.43649
 20
-2.85387
 30
0.0
 10
2.34698
 20
-2.90924
 30
0.0
 10
2.23987
 20
-2.95163
 30
0.0
 10
2.16612
 20
-2.95229
 30
0.0
 10
2.12573
 20
-2.91121
 30
0.0
 10
2.11093
 20
-2.89384
 30
0.0
 10
2.11223
 20
-2.88573
 30
0.0
 10
2.12963
 20
-2.88688
 30
0.0
 10
2.21713
 20
-2.88655
 30
0.0
 10
2.28089
 20
-2.85028
 30
0.0
 10
2.32089
 20
-2.77808
 30
0.0
 10
2.39294
 20
-2.64796
 30
0.0
 10
2.4461
 20
-2.59897
 30
0.0
 10
2.5721
 20
-2.75826
 30
0.0
 10
2.5898
 20
-2.7093
 30
0.0
 10
2.58764
 20
-2.65148
 30
0.0
 10
2.56565
 20
-2.58479
 30
0.0
 10
2.56565
 20
-2.58479
 30
0.0
 10
2.64879
 20
-2.58072
 30
0.0
 10
2.64879
 20
-2.58072
 30
0.0
 10
2.68141
 20
-2.86374
 30
0.0
 10
2.74834
 20
-3.14396
 30
0.0
 10
2.79646
 20
-3.35162
 30
0.0
 10
2.83822
 20
-3.4895
 30
0.0
 10
2.8785
 20
-3.53563
 30
0.0
 10
3.08104
 20
-3.6245
 30
0.0
 10
3.37654
 20
-3.80546
 30
0.0
 10
3.61433
 20
-3.98285
 30
0.0
 10
3.79442
 20
-4.15666
 30
0.0
 10
3.98057
 20
-4.32926
 30
0.0
 10
4.1326
 20
-4.4839
 30
0.0
 10
4.25052
 20
-4.62057
 30
0.0
 10
4.37646
 20
-4.72522
 30
0.0
 10
4.39029
 20
-4.91179
 30
0.0
 10
4.29201
 20
-5.18024
 30
0.0
 10
4.29201
 20
-5.18024
 30
0.0
 10
4.20772
 20
-5.17833
 30
0.0
 10
4.20772
 20
-5.17833
 30
0.0
 10
4.19755
 20
-5.03558
 30
0.0
 10
3.96147
 20
-5.03214
 30
0.0
 10
3.77595
 20
-5.18711
 30
0.0
 10
3.5165
 20
-5.40393
 30
0.0
 10
3.83042
 20
-5.75317
 30
0.0
 10
4.03257
 20
-5.61783
 30
0.0
 10
4.09051
 20
-5.57904
 30
0.0
 10
4.05939
 20
-5.47366
 30
0.0
 10
4.14425
 20
-5.35006
 30
0.0
 10
4.17869
 20
-5.2999
 30
0.0
 10
4.19793
 20
-5.25624
 30
0.0
 10
4.20495
 20
-5.21931
 30
0.0
 10
4.20495
 20
-5.21931
 30
0.0
 10
4.27649
 20
-5.22097
 30
0.0
 10
4.27649
 20
-5.22097
 30
0.0
 10
4.27649
 20
-5.22097
 30
0.0
 10
4.26221
 20
-5.25602
 30
0.0
 10
4.26221
 20
-5.25602
 30
0.0
 10
4.17697
 20
-5.46452
 30
0.0
 10
4.21827
 20
-5.32597
 30
0.0
 10
4.23657
 20
-5.5252
 30
0.0
 10
4.23987
 20
-5.56107
 30
0.0
 10
4.23818
 20
-5.59706
 30
0.0
 10
4.23153
 20
-5.63315
 30
0.0
 10
4.23153
 20
-5.63315
 30
0.0
 10
4.22785
 20
-5.65095
 30
0.0
 10
4.22785
 20
-5.65095
 30
0.0
 10
4.2058
 20
-5.74701
 30
0.0
 10
4.15863
 20
-5.77994
 30
0.0
 10
4.15059
 20
-5.87806
 30
0.0
 10
4.13164
 20
-6.10831
 30
0.0
 10
4.08585
 20
-6.34582
 30
0.0
 10
3.98734
 20
-6.55414
 30
0.0
 10
3.81448
 20
-6.92445
 30
0.0
 10
3.55068
 20
-7.28374
 30
0.0
 10
3.19596
 20
-7.632
 30
0.0
 10
3.33095
 20
-7.62117
 30
0.0
 10
3.42456
 20
-7.6367
 30
0.0
 10
3.47677
 20
-7.67859
 30
0.0
 10
3.53317
 20
-7.72382
 30
0.0
 10
3.60439
 20
-7.83667
 30
0.0
 10
3.45521
 20
-7.8074
 30
0.0
 10
3.25716
 20
-7.79996
 30
0.0
 10
3.10381
 20
-7.82204
 30
0.0
 10
2.99518
 20
-7.87366
 30
0.0
 10
3.20234
 20
-7.94461
 30
0.0
 10
3.33618
 20
-8.09014
 30
0.0
 10
3.39671
 20
-8.31026
 30
0.0
 10
3.40705
 20
-8.36577
 30
0.0
 10
3.3934
 20
-8.37032
 30
0.0
 10
3.35578
 20
-8.32391
 30
0.0
 10
3.21602
 20
-8.15034
 30
0.0
 10
3.01331
 20
-8.07432
 30
0.0
 10
2.74764
 20
-8.09585
 30
0.0
 10
3.09242
 20
-8.17604
 30
0.0
 10
3.25615
 20
-8.30662
 30
0.0
 10
3.23883
 20
-8.48764
 30
0.0
 10
3.16217
 20
-8.34316
 30
0.0
 10
3.01403
 20
-8.27234
 30
0.0
 10
2.79441
 20
-8.27518
 30
0.0
 10
2.90325
 20
-8.35219
 30
0.0
 10
2.97018
 20
-8.41326
 30
0.0
 10
2.99517
 20
-8.45839
 30
0.0
 10
3.01745
 20
-8.50246
 30
0.0
 10
3.00121
 20
-8.5174
 30
0.0
 10
2.94644
 20
-8.50322
 30
0.0
 10
2.77259
 20
-8.43085
 30
0.0
 10
2.6212
 20
-8.43019
 30
0.0
 10
2.49227
 20
-8.50127
 30
0.0
 10
2.85645
 20
-8.56867
 30
0.0
 10
3.07389
 20
-8.8144
 30
0.0
 10
3.14455
 20
-9.23844
 30
0.0
 10
3.16306
 20
-9.34963
 30
0.0
 10
3.20382
 20
-9.67372
 30
0.0
 10
3.10035
 20
-9.35108
 30
0.0
 10
3.04028
 20
-9.17068
 30
0.0
 10
2.89799
 20
-9.05503
 30
0.0
 10
2.67346
 20
-9.00411
 30
0.0
 10
2.85822
 20
-9.16045
 30
0.0
 10
2.96411
 20
-9.33262
 30
0.0
 10
2.99112
 20
-9.52062
 30
0.0
 10
2.98447
 20
-9.62881
 30
0.0
 10
2.99356
 20
-9.7157
 30
0.0
 10
3.01835
 20
-9.78128
 30
0.0
 10
3.0613
 20
-9.8948
 30
0.0
 10
3.16299
 20
-10.0036
 30
0.0
 10
3.10411
 20
-10.15211
 30
0.0
 10
3.01253
 20
-9.84342
 30
0.0
 10
2.84684
 20
-9.66213
 30
0.0
 10
2.60704
 20
-9.60825
 30
0.0
 10
2.46989
 20
-9.55471
 30
0.0
 10
2.34904
 20
-9.41437
 30
0.0
 10
2.24449
 20
-9.18723
 30
0.0
 10
2.24449
 20
-9.18723
 30
0.0
 10
1.71041
 20
-8.17365
 30
0.0
 10
1.71041
 20
-8.17365
 30
0.0
 10
1.6579
 20
-7.917
 30
0.0
 10
1.74625
 20
-7.64541
 30
0.0
 10
1.97546
 20
-7.35887
 30
0.0
 10
2.09713
 20
-7.2177
 30
0.0
 10
2.20804
 20
-7.19252
 30
0.0
 10
2.30813
 20
-7.28333
 30
0.0
 10
2.53955
 20
-7.49319
 30
0.0
 10
2.71754
 20
-7.86632
 30
0.0
 10
3.12935
 20
-7.62201
 30
0.0
 10
2.45294
 20
-7.79177
 30
0.0
 10
2.55283
 20
-7.24356
 30
0.0
 10
2.38176
 20
-7.15595
 30
0.0
 10
2.33674
 20
-7.13291
 30
0.0
 10
2.27177
 20
-7.13424
 30
0.0
 10
2.18683
 20
-7.15998
 30
0.0
 10
1.96496
 20
-7.20481
 30
0.0
 10
1.77263
 20
-7.29447
 30
0.0
 10
1.60983
 20
-7.42895
 30
0.0
 10
1.47977
 20
-7.52849
 30
0.0
 10
1.36866
 20
-7.58502
 30
0.0
 10
1.2765
 20
-7.59853
 30
0.0
 10
1.45
 20
-7.86343
 30
0.0
 10
1.58903
 20
-8.09213
 30
0.0
 10
1.69358
 20
-8.28462
 30
0.0
 10
1.69358
 20
-8.28462
 30
0.0
 10
2.17306
 20
-9.19678
 30
0.0
 10
2.17306
 20
-9.19678
 30
0.0
 10
2.35814
 20
-9.5489
 30
0.0
 10
2.38587
 20
-9.49853
 30
0.0
 10
2.59763
 20
-9.78424
 30
0.0
 10
2.76628
 20
-10.01183
 30
0.0
 10
2.85736
 20
-10.26432
 30
0.0
 10
2.87085
 20
-10.54172
 30
0.0
 10
2.93045
 20
-10.74924
 30
0.0
 10
3.02464
 20
-10.99157
 30
0.0
 10
3.15343
 20
-11.26873
 30
0.0
 10
3.19663
 20
-11.43834
 30
0.0
 10
3.20992
 20
-11.6125
 30
0.0
 10
3.19332
 20
-11.79117
 30
0.0
 10
3.13418
 20
-12.42824
 30
0.0
 10
2.971
 20
-13.38686
 30
0.0
 10
2.11614
 20
-13.27365
 30
0.0
 10
2.01839
 20
-13.26074
 30
0.0
 10
2.06245
 20
-13.25308
 30
0.0
 10
1.98328
 20
-13.30766
 30
0.0
 10
1.72148
 20
-13.48805
 30
0.0
 10
1.42992
 20
-13.33834
 30
0.0
 10
1.20808
 20
-13.16327
 30
0.0
 10
1.02986
 20
-12.99828
 30
0.0
 10
0.85114
 20
-12.64092
 30
0.0
 10
0.67192
 20
-12.09118
 30
0.0
 10
0.56639
 20
-11.79713
 30
0.0
 10
0.48062
 20
-11.56324
 30
0.0
 10
0.41462
 20
-11.38949
 30
0.0
 10
0.37654
 20
-11.43546
 30
0.0
 10
0.36022
 20
-11.43843
 30
0.0
 10
0.32397
 20
-11.38325
 30
0.0
 10
0.30459
 20
-11.3537
 30
0.0
 10
0.27642
 20
-11.35398
 30
0.0
 10
0.25832
 20
-11.3814
 30
0.0
 10
0.23367
 20
-11.41658
 30
0.0
 10
0.21362
 20
-11.42644
 30
0.0
 10
0.19818
 20
-11.41102
 30
0.0
 10
0.18362
 20
-11.39646
 30
0.0
 10
0.15998
 20
-11.32708
 30
0.0
 10
0.12555
 20
-11.38431
 30
0.0
 10
0.06874
 20
-11.49357
 30
0.0
 10
0.01447
 20
-11.3711
 30
0.0
 10
-0.00641
 20
-11.29098
 30
0.0
 10
-0.01931
 20
-11.24141
 30
0.0
 10
-0.01392
 20
-11.23689
 30
0.0
 10
-0.06581
 20
-11.29004
 30
0.0
 10
-0.08712
 20
-11.31185
 30
0.0
 10
-0.10366
 20
-11.33641
 30
0.0
 10
-0.11566
 20
-11.36359
 30
0.0
 10
-0.12434
 20
-11.38322
 30
0.0
 10
-0.1541
 20
-11.49444
 30
0.0
 10
-0.18446
 20
-11.42134
 30
0.0
 10
-0.18446
 20
-11.42134
 30
0.0
 10
-0.19112
 20
-11.20419
 30
0.0
 10
-0.19112
 20
-11.20419
 30
0.0
 10
-0.19351
 20
-11.13843
 30
0.0
 10
-0.24224
 20
-11.11375
 30
0.0
 10
-0.33731
 20
-11.13012
 30
0.0
 10
-0.38891
 20
-11.07737
 30
0.0
 10
-0.44187
 20
-11.04878
 30
0.0
 10
-0.49619
 20
-11.04433
 30
0.0
 10
-0.48326
 20
-10.94757
 30
0.0
 10
-0.52127
 20
-10.92061
 30
0.0
 10
-0.61025
 20
-10.96342
 30
0.0
 10
-0.74561
 20
-11.10683
 30
0.0
 10
-0.7612
 20
-11.09318
 30
0.0
 10
-0.65702
 20
-10.92249
 30
0.0
 10
-0.59777
 20
-10.82983
 30
0.0
 10
-0.95872
 20
-10.55618
 30
0.0
 10
-1.02743
 20
-10.51314
 30
0.0
 10
-1.09638
 20
-10.44696
 30
0.0
 10
-1.08729
 20
-10.43266
 30
0.0
 10
-1.00016
 20
-10.47025
 30
0.0
 10
-0.81259
 20
-10.5537
 30
0.0
 10
-0.67789
 20
-10.64904
 30
0.0
 10
-0.59609
 20
-10.75628
 30
0.0
 10
-0.55424
 20
-10.81111
 30
0.0
 10
-0.5723
 20
-10.82155
 30
0.0
 10
-0.52791
 20
-10.76306
 30
0.0
 10
-0.49258
 20
-10.71647
 30
0.0
 10
-0.41469
 20
-10.65285
 30
0.0
 10
-0.44443
 20
-10.60146
 30
0.0
 10
-0.45841
 20
-10.57731
 30
0.0
 10
-0.48368
 20
-10.56697
 30
0.0
 10
-0.52025
 20
-10.57045
 30
0.0
 10
-0.59008
 20
-10.57709
 30
0.0
 10
-0.5338
 20
-10.52471
 30
0.0
 10
-0.61906
 20
-10.4413
 30
0.0
 10
-0.78341
 20
-10.28062
 30
0.0
 10
-0.68302
 20
-10.31216
 30
0.0
 10
-0.57402
 20
-10.41555
 30
0.0
 10
-0.52325
 20
-10.46372
 30
0.0
 10
-0.47879
 20
-10.47771
 30
0.0
 10
-0.44066
 20
-10.45752
 30
0.0
 10
-0.27748
 20
-10.3963
 30
0.0
 10
-0.34635
 20
-10.55781
 30
0.0
 10
-0.28526
 20
-10.60056
 30
0.0
 10
-0.24119
 20
-10.63142
 30
0.0
 10
-0.1059
 20
-10.56636
 30
0.0
 10
-0.11259
 20
-10.77326
 30
0.0
 10
-0.11259
 20
-10.77326
 30
0.0
 10
0.13009
 20
-10.93399
 30
0.0
 10
0.13009
 20
-10.93399
 30
0.0
 10
0.25239
 20
-11.01499
 30
0.0
 10
0.10523
 20
-11.00556
 30
0.0
 10
0.06475
 20
-10.95647
 30
0.0
 10
-0.06836
 20
-10.85325
 30
0.0
 10
-0.19094
 20
-10.96819
 30
0.0
 10
-0.04466
 20
-11.04298
 30
0.0
 10
0.01154
 20
-11.07172
 30
0.0
 10
0.01962
 20
-11.10818
 30
0.0
 10
0.06364
 20
-11.13005
 30
0.0
 10
0.11905
 20
-11.15761
 30
0.0
 10
0.18493
 20
-11.11348
 30
0.0
 10
0.20028
 20
-11.25175
 30
0.0
 10
0.20598
 20
-11.30323
 30
0.0
 10
0.19266
 20
-11.29705
 30
0.0
 10
0.23063
 20
-11.26675
 30
0.0
 10
0.35629
 20
-11.16646
 30
0.0
 10
0.44246
 20
-11.41284
 30
0.0
 10
0.42042
 20
-11.27419
 30
0.0
 10
0.41158
 20
-10.99941
 30
0.0
 10
0.45576
 20
-10.7798
 30
0.0
 10
0.55295
 20
-10.61536
 30
0.0
 10
0.61705
 20
-10.4001
 30
0.0
 10
0.63608
 20
-10.19874
 30
0.0
 10
0.61418
 20
-10.00782
 30
0.0
 10
0.60411
 20
-9.91991
 30
0.0
 10
0.58125
 20
-9.80916
 30
0.0
 10
0.55752
 20
-9.72252
 30
0.0
 10
0.50013
 20
-9.51309
 30
0.0
 10
0.3753
 20
-9.49488
 30
0.0
 10
0.29354
 20
-9.66791
 30
0.0
 10
0.23513
 20
-9.79156
 30
0.0
 10
0.2618
 20
-9.78484
 30
0.0
 10
0.16842
 20
-9.61959
 30
0.0
 10
0.08501
 20
-9.47196
 30
0.0
 10
-0.01137
 20
-9.27968
 30
0.0
 10
-0.12072
 20
-9.04276
 30
0.0
 10
-0.46768
 20
-8.27133
 30
0.0
 10
-0.7224
 20
-7.81001
 30
0.0
 10
-0.88488
 20
-7.65879
 30
0.0
 10
-0.76036
 20
-7.712
 30
0.0
 10
-0.61203
 20
-7.83017
 30
0.0
 10
-0.43996
 20
-8.01329
 30
0.0
 10
-0.25844
 20
-8.20642
 30
0.0
 10
0.13234
 20
-8.4659
 30
0.0
 10
0.38987
 20
-8.52423
 30
0.0
 10
0.69829
 20
-8.64085
 30
0.0
 10
0.88541
 20
-8.80457
 30
0.0
 10
0.95121
 20
-9.0154
 30
0.0
 10
1.01734
 20
-9.16861
 30
0.0
 10
1.10959
 20
-9.31024
 30
0.0
 10
1.22798
 20
-9.44031
 30
0.0
 10
1.36804
 20
-9.61097
 30
0.0
 10
1.46355
 20
-9.7747
 30
0.0
 10
1.51451
 20
-9.93149
 30
0.0
 10
1.50508
 20
-9.79848
 30
0.0
 10
1.47648
 20
-9.6854
 30
0.0
 10
1.42872
 20
-9.59228
 30
0.0
 10
1.22249
 20
-9.29563
 30
0.0
 10
1.09902
 20
-9.08251
 30
0.0
 10
1.05833
 20
-8.95291
 30
0.0
 10
1.01045
 20
-8.77389
 30
0.0
 10
1.05008
 20
-8.58546
 30
0.0
 10
1.17722
 20
-8.38763
 30
0.0
 10
1.28755
 20
-8.11597
 30
0.0
 10
1.26675
 20
-7.87036
 30
0.0
 10
1.11482
 20
-7.65081
 30
0.0
 10
0.50525
 20
-7.74546
 30
0.0
 10
-0.14967
 20
-7.68178
 30
0.0
 10
-0.84994
 20
-7.45977
 30
0.0
 10
-1.47462
 20
-7.23325
 30
0.0
 10
-2.07533
 20
-7.19558
 30
0.0
 10
-2.65209
 20
-7.34675
 30
0.0
 10
-3.06555
 20
-7.45507
 30
0.0
 10
-3.27618
 20
-7.53299
 30
0.0
 10
-3.17737
 20
-8.04836
 30
0.0
 10
-3.12505
 20
-8.19042
 30
0.0
 10
-3.06396
 20
-8.27877
 30
0.0
 10
-2.99411
 20
-8.31343
 30
0.0
 10
-2.94797
 20
-8.33963
 30
0.0
 10
-2.91354
 20
-8.33509
 30
0.0
 10
-2.8908
 20
-8.29978
 30
0.0
 10
-2.83481
 20
-8.2561
 30
0.0
 10
-2.82842
 20
-8.22435
 30
0.0
 10
-2.87161
 20
-8.20455
 30
0.0
 10
-2.99434
 20
-8.14827
 30
0.0
 10
-2.87859
 20
-8.14052
 30
0.0
 10
-2.91094
 20
-8.06221
 30
0.0
 10
-2.96634
 20
-7.92827
 30
0.0
 10
-2.85352
 20
-7.93005
 30
0.0
 10
-2.82842
 20
-8.06584
 30
0.0
 10
-2.77687
 20
-8.0912
 30
0.0
 10
-2.75007
 20
-8.13796
 30
0.0
 10
-2.748
 20
-8.20612
 30
0.0
 10
-2.74367
 20
-8.34957
 30
0.0
 10
-2.78424
 20
-8.36082
 30
0.0
 10
-2.66674
 20
-8.50286
 30
0.0
 10
-2.52912
 20
-8.66931
 30
0.0
 10
-2.42011
 20
-8.73046
 30
0.0
 10
-2.21831
 20
-8.81625
 30
0.0
 10
-2.4453
 20
-8.63079
 30
0.0
 10
-2.39224
 20
-8.49778
 30
0.0
 10
-2.48998
 20
-8.36275
 30
0.0
 10
-2.5721
 20
-8.24937
 30
0.0
 10
-2.55874
 20
-8.13321
 30
0.0
 10
-2.3888
 20
-8.18853
 30
0.0
 10
-2.35055
 20
-8.21425
 30
0.0
 10
-2.31729
 20
-8.22132
 30
0.0
 10
-2.28907
 20
-8.20974
 30
0.0
 10
-2.24826
 20
-8.193
 30
0.0
 10
-2.22657
 20
-8.11888
 30
0.0
 10
-2.23088
 20
-8.27222
 30
0.0
 10
-2.23477
 20
-8.41273
 30
0.0
 10
-1.95097
 20
-8.77675
 30
0.0
 10
-1.81963
 20
-8.85904
 30
0.0
 10
-1.72766
 20
-8.97575
 30
0.0
 10
-1.62367
 20
-9.05694
 30
0.0
 10
-1.50768
 20
-9.1026
 30
0.0
 10
-1.38546
 20
-9.1545
 30
0.0
 10
-1.30165
 20
-9.21492
 30
0.0
 10
-1.25623
 20
-9.28388
 30
0.0
 10
-1.20486
 20
-9.41521
 30
0.0
 10
-1.17146
 20
-9.21221
 30
0.0
 10
-1.04469
 20
-9.28841
 30
0.0
 10
-0.97406
 20
-9.33088
 30
0.0
 10
-0.98105
 20
-9.31323
 30
0.0
 10
-0.89467
 20
-9.31028
 30
0.0
 10
-0.83149
 20
-9.30811
 30
0.0
 10
-0.77462
 20
-9.30905
 30
0.0
 10
-0.72409
 20
-9.31309
 30
0.0
 10
-0.66051
 20
-9.32682
 30
0.0
 10
-0.62836
 20
-9.35978
 30
0.0
 10
-0.62768
 20
-9.41197
 30
0.0
 10
-0.33517
 20
-9.48427
 30
0.0
 10
-0.44572
 20
-9.59513
 30
0.0
 10
-0.30669
 20
-9.69072
 30
0.0
 10
-0.18927
 20
-9.77142
 30
0.0
 10
-0.21951
 20
-9.63476
 30
0.0
 10
-0.13749
 20
-9.53555
 30
0.0
 10
-0.07109
 20
-9.45528
 30
0.0
 10
-0.04771
 20
-9.38373
 30
0.0
 10
0.0528
 20
-9.4995
 30
0.0
 10
0.09659
 20
-9.54994
 30
0.0
 10
0.09652
 20
-9.61693
 30
0.0
 10
0.05258
 20
-9.70045
 30
0.0
 10
0.01267
 20
-9.73369
 30
0.0
 10
-0.03345
 20
-9.75254
 30
0.0
 10
-0.08581
 20
-9.75697
 30
0.0
 10
0.04131
 20
-9.84016
 30
0.0
 10
0.10109
 20
-9.93631
 30
0.0
 10
0.09352
 20
-10.04544
 30
0.0
 10
0.20838
 20
-9.96097
 30
0.0
 10
0.27985
 20
-9.86805
 30
0.0
 10
0.30792
 20
-9.76669
 30
0.0
 10
0.39685
 20
-9.53276
 30
0.0
 10
0.47352
 20
-9.53536
 30
0.0
 10
0.53793
 20
-9.77448
 30
0.0
 10
0.5872
 20
-10.07551
 30
0.0
 10
0.5859
 20
-10.3133
 30
0.0
 10
0.53402
 20
-10.48782
 30
0.0
 10
0.39955
 20
-10.74776
 30
0.0
 10
0.25337
 20
-10.77764
 30
0.0
 10
0.09546
 20
-10.57746
 30
0.0
 10
0.07686
 20
-10.43078
 30
0.0
 10
0.03982
 20
-10.33397
 30
0.0
 10
-0.01567
 20
-10.28703
 30
0.0
 10
-0.04082
 20
-10.24342
 30
0.0
 10
-0.05698
 20
-10.1863
 30
0.0
 10
-0.06412
 20
-10.11567
 30
0.0
 10
-0.07927
 20
-9.96604
 30
0.0
 10
-0.14625
 20
-9.77761
 30
0.0
 10
-0.30999
 20
-9.95762
 30
0.0
 10
-0.39117
 20
-10.00871
 30
0.0
 10
-0.45289
 20
-9.99766
 30
0.0
 10
-0.49516
 20
-9.92448
 30
0.0
 10
-0.56248
 20
-9.81283
 30
0.0
 10
-0.66449
 20
-9.79203
 30
0.0
 10
-0.80119
 20
-9.86208
 30
0.0
 10
-0.89161
 20
-9.88249
 30
0.0
 10
-0.95789
 20
-9.87729
 30
0.0
 10
-1.00003
 20
-9.84647
 30
0.0
 10
-1.03745
 20
-9.83687
 30
0.0
 10
-1.06929
 20
-9.84076
 30
0.0
 10
-1.09554
 20
-9.85814
 30
0.0
 10
-1.15668
 20
-9.88516
 30
0.0
 10
-1.20996
 20
-9.88192
 30
0.0
 10
-1.25538
 20
-9.8484
 30
0.0
 10
-1.34583
 20
-9.82707
 30
0.0
 10
-1.41925
 20
-9.83876
 30
0.0
 10
-1.47564
 20
-9.88346
 30
0.0
 10
-1.54041
 20
-9.914
 30
0.0
 10
-1.61319
 20
-9.9231
 30
0.0
 10
-1.69395
 20
-9.91075
 30
0.0
 10
-1.83104
 20
-9.96386
 30
0.0
 10
-1.95514
 20
-9.95801
 30
0.0
 10
-2.06626
 20
-9.89318
 30
0.0
 10
-2.21097
 20
-9.89849
 30
0.0
 10
-2.28116
 20
-9.86015
 30
0.0
 10
-2.27682
 20
-9.77815
 30
0.0
 10
-2.19993
 20
-9.84829
 30
0.0
 10
-2.12651
 20
-9.86844
 30
0.0
 10
-2.05656
 20
-9.83858
 30
0.0
 10
-1.88344
 20
-9.91005
 30
0.0
 10
-1.76389
 20
-9.91849
 30
0.0
 10
-1.69791
 20
-9.86391
 30
0.0
 10
-1.58044
 20
-9.82031
 30
0.0
 10
-1.42711
 20
-9.78977
 30
0.0
 10
-1.2379
 20
-9.77227
 30
0.0
 10
-1.04154
 20
-9.76761
 30
0.0
 10
-0.88403
 20
-9.75273
 30
0.0
 10
-0.76534
 20
-9.72767
 30
0.0
 10
-0.61114
 20
-9.69778
 30
0.0
 10
-0.50742
 20
-9.71264
 30
0.0
 10
-0.45637
 20
-9.77271
 30
0.0
 10
-0.41568
 20
-9.7965
 30
0.0
 10
-0.3751
 20
-9.74907
 30
0.0
 10
-0.40671
 20
-9.71424
 30
0.0
 10
-0.42814
 20
-9.71242
 30
0.0
 10
-0.44514
 20
-9.70427
 30
0.0
 10
-0.45771
 20
-9.68982
 30
0.0
 10
-0.49011
 20
-9.65254
 30
0.0
 10
-0.46429
 20
-9.64234
 30
0.0
 10
-0.52382
 20
-9.58991
 30
0.0
 10
-0.52382
 20
-9.58991
 30
0.0
 10
-0.646
 20
-9.48227
 30
0.0
 10
-0.646
 20
-9.48227
 30
0.0
 10
-0.70148
 20
-9.60422
 30
0.0
 10
-0.7788
 20
-9.61526
 30
0.0
 10
-0.87795
 20
-9.5154
 30
0.0
 10
-0.95184
 20
-9.58986
 30
0.0
 10
-1.02477
 20
-9.59798
 30
0.0
 10
-1.09675
 20
-9.53974
 30
0.0
 10
-1.20298
 20
-9.6966
 30
0.0
 10
-1.34134
 20
-9.71102
 30
0.0
 10
-1.51183
 20
-9.58303
 30
0.0
 10
-1.62786
 20
-9.49587
 30
0.0
 10
-2.15408
 20
-9.51434
 30
0.0
 10
-1.90668
 20
-9.66876
 30
0.0
 10
-1.84652
 20
-9.72808
 30
0.0
 10
-1.8899
 20
-9.80092
 30
0.0
 10
-1.97218
 20
-9.7406
 30
0.0
 10
-1.98854
 20
-9.72774
 30
0.0
 10
-2.01715
 20
-9.72203
 30
0.0
 10
-2.05803
 20
-9.72349
 30
0.0
 10
-2.16762
 20
-9.70815
 30
0.0
 10
-2.17912
 20
-9.59671
 30
0.0
 10
-2.09816
 20
-9.5695
 30
0.0
 10
-2.0211
 20
-9.52928
 30
0.0
 10
-2.02256
 20
-9.48282
 30
0.0
 10
-2.10872
 20
-9.43207
 30
0.0
 10
-2.10872
 20
-9.43207
 30
0.0
 10
-2.46725
 20
-9.28823
 30
0.0
 10
-2.46725
 20
-9.28823
 30
0.0
 10
-2.5395
 20
-9.25765
 30
0.0
 10
-2.51684
 20
-9.31048
 30
0.0
 10
-2.57409
 20
-9.32182
 30
0.0
 10
-2.60587
 20
-9.32812
 30
0.0
 10
-2.6252
 20
-9.31521
 30
0.0
 10
-2.63205
 20
-9.28311
 30
0.0
 10
-2.64585
 20
-9.21824
 30
0.0
 10
-2.66483
 20
-9.26617
 30
0.0
 10
-2.68437
 20
-9.21593
 30
0.0
 10
-2.70594
 20
-9.16038
 30
0.0
 10
-2.62898
 20
-9.09721
 30
0.0
 10
-2.60426
 20
-9.16223
 30
0.0
 10
-2.60426
 20
-9.16223
 30
0.0
 10
-2.58225
 20
-9.22001
 30
0.0
 10
-2.58225
 20
-9.22001
 30
0.0
 10
-2.5553
 20
-9.28065
 30
0.0
 10
-2.54799
 20
-9.20626
 30
0.0
 10
-2.56708
 20
-9.15868
 30
0.0
 10
-2.58925
 20
-9.10351
 30
0.0
 10
-2.62744
 20
-9.05573
 30
0.0
 10
-2.68166
 20
-9.01535
 30
0.0
 10
-2.74764
 20
-8.95083
 30
0.0
 10
-2.80226
 20
-8.89706
 30
0.0
 10
-2.84548
 20
-8.85406
 30
0.0
 10
-3.0029
 20
-8.6975
 30
0.0
 10
-2.861
 20
-8.6284
 30
0.0
 10
-2.74307
 20
-8.78873
 30
0.0
 10
-2.70401
 20
-8.81205
 30
0.0
 10
-2.68826
 20
-8.79969
 30
0.0
 10
-2.69583
 20
-8.75164
 30
0.0
 10
-2.69583
 20
-8.75164
 30
0.0
 10
-2.84442
 20
-8.58547
 30
0.0
 10
-2.84442
 20
-8.58547
 30
0.0
 10
-2.88442
 20
-8.54515
 30
0.0
 10
-2.92145
 20
-8.54645
 30
0.0
 10
-2.95552
 20
-8.58937
 30
0.0
 10
-2.97679
 20
-8.62083
 30
0.0
 10
-3.01482
 20
-8.63652
 30
0.0
 10
-3.05208
 20
-8.62922
 30
0.0
 10
-3.08935
 20
-8.62193
 30
0.0
 10
-3.11864
 20
-8.59307
 30
0.0
 10
-3.12649
 20
-8.55591
 30
0.0
 10
-3.13433
 20
-8.51876
 30
0.0
 10
-3.1192
 20
-8.48051
 30
0.0
 10
-3.08807
 20
-8.45877
 30
0.0
 10
-3.06483
 20
-8.42259
 30
0.0
 10
-3.08432
 20
-8.37126
 30
0.0
 10
-3.14654
 20
-8.30478
 30
0.0
 10
-3.24459
 20
-8.209
 30
0.0
 10
-3.29969
 20
-7.9819
 30
0.0
 10
-3.31179
 20
-7.62349
 30
0.0
 10
-3.32231
 20
-7.3108
 30
0.0
 10
-3.14289
 20
-7.21472
 30
0.0
 10
-2.84059
 20
-7.19662
 30
0.0
 10
-2.27904
 20
-7.11601
 30
0.0
 10
-1.78265
 20
-7.1134
 30
0.0
 10
-1.35143
 20
-7.18878
 30
0.0
 10
-0.44706
 20
-7.4128
 30
0.0
 10
0.19096
 20
-7.50636
 30
0.0
 10
0.56264
 20
-7.46944
 30
0.0
 10
0.90786
 20
-7.47684
 30
0.0
 10
1.21972
 20
-7.39367
 30
0.0
 10
1.49823
 20
-7.21993
 30
0.0
 10
1.74044
 20
-7.11815
 30
0.0
 10
1.97823
 20
-7.05708
 30
0.0
 10
2.21163
 20
-7.03669
 30
0.0
 10
2.53362
 20
-7.04813
 30
0.0
 10
2.81296
 20
-6.92844
 30
0.0
 10
3.08076
 20
-6.6842
 30
0.0
 10
3.18965
 20
-6.58486
 30
0.0
 10
3.1863
 20
-6.63094
 30
0.0
 10
3.11466
 20
-6.71575
 30
0.0
 10
2.87815
 20
-6.99576
 30
0.0
 10
2.65246
 20
-7.13391
 30
0.0
 10
2.43766
 20
-7.13019
 30
0.0
 10
2.49755
 20
-7.18904
 30
0.0
 10
2.54025
 20
-7.26829
 30
0.0
 10
2.56578
 20
-7.36791
 30
0.0
 10
2.70037
 20
-7.63083
 30
0.0
 10
2.91477
 20
-7.67437
 30
0.0
 10
3.20901
 20
-7.49851
 30
0.0
 10
3.53269
 20
-7.25659
 30
0.0
 10
4.4262
 20
-5.94331
 30
0.0
 10
3.84441
 20
-5.8027
 30
0.0
 10
3.74313
 20
-5.77791
 30
0.0
 10
3.65992
 20
-5.69332
 30
0.0
 10
3.62504
 20
-5.58732
 30
0.0
 10
3.5285
 20
-5.29399
 30
0.0
 10
3.62585
 20
-4.87188
 30
0.0
 10
3.40193
 20
-5.40309
 30
0.0
 10
3.29312
 20
-5.60106
 30
0.0
 10
3.22944
 20
-5.7024
 30
0.0
 10
3.21088
 20
-5.70709
 30
0.0
 10
3.28201
 20
-5.51552
 30
0.0
 10
3.32685
 20
-5.36024
 30
0.0
 10
3.34537
 20
-5.24124
 30
0.0
 10
3.08635
 20
-5.58804
 30
0.0
 10
2.91416
 20
-5.76541
 30
0.0
 10
2.82884
 20
-5.77335
 30
0.0
 10
2.57953
 20
-5.90966
 30
0.0
 10
2.27396
 20
-5.84942
 30
0.0
 10
2.09367
 20
-5.64158
 30
0.0
 10
1.95077
 20
-5.47687
 30
0.0
 10
1.71738
 20
-4.80809
 30
0.0
 10
2.13492
 20
-5.48486
 30
0.0
 10
2.24053
 20
-5.60311
 30
0.0
 10
2.39122
 20
-5.67121
 30
0.0
 10
2.54977
 20
-5.67232
 30
0.0
 10
2.65889
 20
-5.67308
 30
0.0
 10
2.76474
 20
-5.64206
 30
0.0
 10
2.85509
 20
-5.58458
 30
0.0
 10
3.00041
 20
-5.49213
 30
0.0
 10
3.06367
 20
-5.31754
 30
0.0
 10
2.93018
 20
-5.18466
 30
0.0
 10
2.60738
 20
-4.88854
 30
0.0
 10
2.43474
 20
-4.86782
 30
0.0
 10
2.41226
 20
-5.12249
 30
0.0
 10
2.41043
 20
-5.14332
 30
0.0
 10
2.40959
 20
-5.16599
 30
0.0
 10
2.40975
 20
-5.1905
 30
0.0
 10
2.43537
 20
-5.38814
 30
0.0
 10
2.23071
 20
-5.41608
 30
0.0
 10
2.0472
 20
-5.25092
 30
0.0
 10
1.97306
 20
-5.16833
 30
0.0
 10
1.92757
 20
-5.06566
 30
0.0
 10
1.91073
 20
-4.94291
 30
0.0
 10
1.89178
 20
-4.85455
 30
0.0
 10
1.84176
 20
-4.82662
 30
0.0
 10
1.76064
 20
-4.8591
 30
0.0
 10
1.77525
 20
-4.76705
 30
0.0
 10
1.81747
 20
-4.70792
 30
0.0
 10
1.88729
 20
-4.68169
 30
0.0
 10
1.97556
 20
-4.67121
 30
0.0
 10
2.01715
 20
-4.71019
 30
0.0
 10
2.01205
 20
-4.79865
 30
0.0
 10
1.97783
 20
-5.04557
 30
0.0
 10
2.01423
 20
-5.1878
 30
0.0
 10
2.12124
 20
-5.22535
 30
0.0
 10
2.19055
 20
-5.24964
 30
0.0
 10
2.25785
 20
-5.27232
 30
0.0
 10
2.25957
 20
-5.17678
 30
0.0
 10
2.3559
 20
-4.706
 30
0.0
 10
2.67296
 20
-4.56371
 30
0.0
 10
3.21074
 20
-4.74989
 30
0.0
 10
3.7025
 20
-4.85477
 30
0.0
 10
3.29258
 20
-4.43989
 30
0.0
 10
2.82621
 20
-4.299
 30
0.0
 10
2.72842
 20
-4.26946
 30
0.0
 10
2.29974
 20
-4.17351
 30
0.0
 10
2.65325
 20
-4.09882
 30
0.0
 10
2.78479
 20
-4.07149
 30
0.0
 10
2.89686
 20
-4.05167
 30
0.0
 10
2.98947
 20
-4.03937
 30
0.0
 10
2.71888
 20
-3.91528
 30
0.0
 10
2.45183
 20
-3.73076
 30
0.0
 10
2.18832
 20
-3.48581
 30
0.0
 10
2.01433
 20
-3.30123
 30
0.0
 10
1.82721
 20
-3.1492
 30
0.0
 10
1.62695
 20
-3.02971
 30
0.0
 10
1.09125
 20
-2.7142
 30
0.0
 10
0.71733
 20
-2.14075
 30
0.0
 10
0.50521
 20
-1.30938
 30
0.0
 10
0.36421
 20
-0.75685
 30
0.0
 10
0.40493
 20
-0.28846
 30
0.0
 10
-0.13122
 20
0.10061
 30
0.0
 10
-0.41063
 20
0.35002
 30
0.0
 10
-0.67908
 20
0.48764
 30
0.0
 10
-0.93655
 20
0.51351
 30
0.0
 10
-1.13958
 20
0.53383
 30
0.0
 10
-1.38722
 20
0.57623
 30
0.0
 10
-1.59819
 20
0.63228
 30
0.0
 10
-1.7688
 20
0.67758
 30
0.0
 10
-1.90657
 20
0.69281
 30
0.0
 10
-2.0844
 20
0.70285
 30
0.0
 10
-1.98459
 20
0.6601
 30
0.0
 10
-1.85231
 20
0.6401
 30
0.0
 10
-1.73402
 20
0.61068
 30
0.0
 10
-1.47463
 20
0.54617
 30
0.0
 10
-1.20814
 20
0.4882
 30
0.0
 10
-0.9741
 20
0.41231
 30
0.0
 10
-0.76229
 20
0.34364
 30
0.0
 10
-0.59799
 20
0.21924
 30
0.0
 10
-0.48123
 20
0.03915
 30
0.0
 10
-0.1696
 20
-0.39981
 30
0.0
 10
0.00841
 20
-0.83448
 30
0.0
 10
0.05277
 20
-1.26487
 30
0.0
 10
0.1434
 20
-1.87057
 30
0.0
 10
0.32271
 20
-2.31888
 30
0.0
 10
0.59074
 20
-2.6098
 30
0.0
 10
0.8556
 20
-2.91689
 30
0.0
 10
0.8452
 20
-2.97602
 30
0.0
 10
0.48353
 20
-2.83397
 30
0.0
 10
0.11174
 20
-2.72614
 30
0.0
 10
-0.11372
 20
-2.45456
 30
0.0
 10
-0.19284
 20
-2.01924
 30
0.0
 10
-0.32297
 20
-2.12266
 30
0.0
 10
-0.34571
 20
-2.07457
 30
0.0
 10
-0.26107
 20
-1.875
 30
0.0
 10
-0.53629
 20
-2.00001
 30
0.0
 10
-0.54474
 20
-1.97337
 30
0.0
 10
-0.44429
 20
-1.69567
 30
0.0
 10
-0.66318
 20
-1.99757
 30
0.0
 10
-0.67747
 20
-1.95078
 30
0.0
 10
-0.61584
 20
-1.51438
 30
0.0
 10
-0.70357
 20
-1.76833
 30
0.0
 10
-0.72964
 20
-1.45796
 30
0.0
 10
-0.82391
 20
-1.33322
 30
0.0
 10
-1.08039
 20
-0.99373
 30
0.0
 10
-1.44379
 20
-0.95279
 30
0.0
 10
-1.91408
 20
-1.21037
 30
0.0
 10
-2.07915
 20
-1.32896
 30
0.0
 10
-2.10288
 20
-1.30362
 30
0.0
 10
-1.98526
 20
-1.13437
 30
0.0
 10
-1.91846
 20
-1.06324
 30
0.0
 10
-1.86682
 20
-1.01453
 30
0.0
 10
-1.83032
 20
-0.9882
 30
0.0
 10
-1.96757
 20
-1.00754
 30
0.0
 10
-2.0842
 20
-1.0436
 30
0.0
 10
-2.18022
 20
-1.09637
 30
0.0
 10
-2.21756
 20
-1.10666
 30
0.0
 10
-2.2205
 20
-1.09172
 30
0.0
 10
-2.18901
 20
-1.05153
 30
0.0
 10
-2.03179
 20
-0.9208
 30
0.0
 10
-1.89309
 20
-0.84576
 30
0.0
 10
-1.77289
 20
-0.8264
 30
0.0
 10
-1.97012
 20
-0.77624
 30
0.0
 10
-2.15335
 20
-0.77689
 30
0.0
 10
-2.32258
 20
-0.82834
 30
0.0
 10
-2.42016
 20
-0.85669
 30
0.0
 10
-2.4296
 20
-0.83524
 30
0.0
 10
-2.35087
 20
-0.76401
 30
0.0
 10
-2.15667
 20
-0.64366
 30
0.0
 10
-1.93088
 20
-0.58921
 30
0.0
 10
-1.67351
 20
-0.60069
 30
0.0
 10
-1.76182
 20
-0.49746
 30
0.0
 10
-1.89548
 20
-0.419
 30
0.0
 10
-2.07447
 20
-0.36534
 30
0.0
 10
-2.2638
 20
-0.30857
 30
0.0
 10
-2.20551
 20
-0.29784
 30
0.0
 10
-2.03613
 20
-0.30954
 30
0.0
 10
-1.69818
 20
-0.33285
 30
0.0
 10
-1.43438
 20
-0.43595
 30
0.0
 10
-1.24472
 20
-0.61881
 30
0.0
 10
-1.32025
 20
-0.47088
 30
0.0
 10
-1.40471
 20
-0.35394
 30
0.0
 10
-1.49812
 20
-0.26796
 30
0.0
 10
-1.30688
 20
-0.33334
 30
0.0
 10
-1.1451
 20
-0.4334
 30
0.0
 10
-1.01278
 20
-0.56814
 30
0.0
 10
-1.09612
 20
-0.41065
 30
0.0
 10
-1.18839
 20
-0.295
 30
0.0
 10
-1.28956
 20
-0.22119
 30
0.0
 10
-1.07851
 20
-0.27756
 30
0.0
 10
-0.90113
 20
-0.40622
 30
0.0
 10
-0.75744
 20
-0.60713
 30
0.0
 10
-0.75744
 20
-0.60713
 30
0.0
 10
-0.8744
 20
-0.32645
 30
0.0
 10
-0.8744
 20
-0.32645
 30
0.0
 10
-0.61983
 20
-0.5031
 30
0.0
 10
-0.44635
 20
-0.70386
 30
0.0
 10
-0.35397
 20
-0.92875
 30
0.0
 10
-0.3792
 20
-0.73086
 30
0.0
 10
-0.52993
 20
-0.48332
 30
0.0
 10
-0.80618
 20
-0.18614
 30
0.0
 10
-1.03517
 20
0.05526
 30
0.0
 10
-1.37918
 20
0.17928
 30
0.0
 10
-1.83817
 20
0.18592
 30
0.0
 10
-2.45543
 20
0.19482
 30
0.0
 10
-3.07502
 20
0.00771
 30
0.0
 10
-3.71433
 20
0.07504
 30
0.0
 10
-3.94149
 20
0.07885
 30
0.0
 10
-4.13768
 20
0.06192
 30
0.0
 10
-4.3029
 20
0.02426
 30
0.0
 10
-4.25785
 20
0.11028
 30
0.0
 10
-4.02915
 20
0.17785
 30
0.0
 10
-3.6168
 20
0.22698
 30
0.0
 10
-3.75145
 20
0.27224
 30
0.0
 10
-3.89309
 20
0.28978
 30
0.0
 10
-4.04171
 20
0.27961
 30
0.0
 10
-3.94267
 20
0.35026
 30
0.0
 10
-3.74646
 20
0.37755
 30
0.0
 10
-3.45306
 20
0.36147
 30
0.0
 10
-3.61695
 20
0.42177
 30
0.0
 10
-3.70594
 20
0.46464
 30
0.0
 10
-3.72005
 20
0.49009
 30
0.0
 10
-3.34886
 20
0.44845
 30
0.0
 10
-3.07662
 20
0.43091
 30
0.0
 10
-2.90332
 20
0.43746
 30
0.0
 10
-3.20417
 20
0.60668
 30
0.0
 10
-3.38479
 20
0.72427
 30
0.0
 10
-3.44517
 20
0.79024
 30
0.0
 10
-3.23733
 20
0.69784
 30
0.0
 10
-3.07814
 20
0.65951
 30
0.0
 10
-2.96762
 20
0.67523
 30
0.0
 10
-3.0466
 20
0.71395
 30
0.0
 10
-3.13562
 20
0.78087
 30
0.0
 10
-3.23466
 20
0.876
 30
0.0
 10
-3.28063
 20
0.92942
 30
0.0
 10
-3.26699
 20
0.93981
 30
0.0
 10
-3.19373
 20
0.90718
 30
0.0
 10
-2.96215
 20
0.81813
 30
0.0
 10
-2.80752
 20
0.77005
 30
0.0
 10
-2.72982
 20
0.76295
 30
0.0
 10
-2.9067
 20
0.93938
 30
0.0
 10
-3.02946
 20
1.18498
 30
0.0
 10
-3.09814
 20
1.49975
 30
0.0
 10
-3.10271
 20
1.65014
 30
0.0
 10
-3.18651
 20
1.77294
 30
0.0
 10
-3.34955
 20
1.86815
 30
0.0
 10
-3.4486
 20
1.92224
 30
0.0
 10
-3.51679
 20
2.02022
 30
0.0
 10
-3.54795
 20
2.17759
 30
0.0
 10
-3.57154
 20
2.29684
 30
0.0
 10
-3.58128
 20
2.39415
 30
0.0
 10
-3.61199
 20
2.51868
 30
0.0
 10
-3.6842
 20
2.81158
 30
0.0
 10
-3.75456
 20
3.13008
 30
0.0
 10
-3.82306
 20
3.47419
 30
0.0
 10
-4.04456
 20
4.12532
 30
0.0
 10
-4.38292
 20
4.93641
 30
0.0
 10
-4.88439
 20
5.41758
 30
0.0
 10
-5.50358
 20
6.12339
 30
0.0
 10
-5.97398
 20
6.11819
 30
0.0
 10
-6.29559
 20
5.40199
 30
0.0
 10
-6.59032
 20
4.78798
 30
0.0
 10
-6.8214
 20
3.81343
 30
0.0
 10
-6.95832
 20
3.13315
 30
0.0
 10
-7.14394
 20
2.52503
 30
0.0
 10
-7.37807
 20
1.83405
 30
0.0
 10
-7.45859
 20
1.1788
 30
0.0
 10
-7.53562
 20
0.55196
 30
0.0
 10
-7.8825
 20
-0.08315
 30
0.0
 10
-7.6094
 20
-0.69112
 30
0.0
 10
-7.52815
 20
-0.87992
 30
0.0
 10
-7.47842
 20
-1.04896
 30
0.0
 10
-7.46016
 20
-1.19823
 30
0.0
 10
-7.40714
 20
-1.6323
 30
0.0
 10
-7.35006
 20
-1.73315
 30
0.0
 10
-7.17668
 20
-2.14518
 30
0.0
 10
-7.2562
 20
-2.12257
 30
0.0
 10
-7.36405
 20
-2.05109
 30
0.0
 10
-7.50025
 20
-1.93078
 30
0.0
 10
-7.39168
 20
-2.20788
 30
0.0
 10
-7.28773
 20
-2.4002
 30
0.0
 10
-7.18838
 20
-2.50773
 30
0.0
 10
-7.6413
 20
-2.55138
 30
0.0
 10
-7.59322
 20
-3.02308
 30
0.0
 10
-7.10262
 20
-2.95216
 30
0.0
 10
-7.21681
 20
-3.07705
 30
0.0
 10
-7.33895
 20
-3.16151
 30
0.0
 10
-7.46907
 20
-3.20556
 30
0.0
 10
-7.35572
 20
-3.28778
 30
0.0
 10
-7.22188
 20
-3.25659
 30
0.0
 10
-7.06753
 20
-3.112
 30
0.0
 10
-7.16188
 20
-3.31784
 30
0.0
 10
-7.27623
 20
-3.43999
 30
0.0
 10
-7.41059
 20
-3.47845
 30
0.0
 10
-7.30322
 20
-3.54485
 30
0.0
 10
-7.17068
 20
-3.49547
 30
0.0
 10
-7.01296
 20
-3.33032
 30
0.0
 10
-7.1195
 20
-3.60978
 30
0.0
 10
-7.24165
 20
-3.7878
 30
0.0
 10
-7.3794
 20
-3.86439
 30
0.0
 10
-7.24452
 20
-3.88949
 30
0.0
 10
-7.13277
 20
-3.89469
 30
0.0
 10
-7.04414
 20
-3.87998
 30
0.0
 10
-7.16093
 20
-4.01242
 30
0.0
 10
-7.30387
 20
-4.10338
 30
0.0
 10
-7.47296
 20
-4.15287
 30
0.0
 10
-7.28185
 20
-4.13556
 30
0.0
 10
-7.17438
 20
-4.12544
 30
0.0
 10
-7.15059
 20
-4.12251
 30
0.0
 10
-7.31502
 20
-4.23583
 30
0.0
 10
-7.39129
 20
-4.35641
 30
0.0
 10
-7.3794
 20
-4.48423
 30
0.0
 10
-7.39628
 20
-4.61295
 30
0.0
 10
-7.45086
 20
-4.70262
 30
0.0
 10
-7.54313
 20
-4.75323
 30
0.0
 10
-7.54313
 20
-4.75323
 30
0.0
 10
-7.19228
 20
-4.76494
 30
0.0
 10
-7.19228
 20
-4.76494
 30
0.0
 10
-7.29925
 20
-4.83944
 30
0.0
 10
-7.46168
 20
-4.9174
 30
0.0
 10
-7.67957
 20
-4.99884
 30
0.0
 10
-7.45548
 20
-5.03474
 30
0.0
 10
-7.2729
 20
-5.00875
 30
0.0
 10
-7.13185
 20
-4.92086
 30
0.0
 10
-7.14289
 20
-4.98106
 30
0.0
 10
-7.17732
 20
-5.02653
 30
0.0
 10
-7.23516
 20
-5.05731
 30
0.0
 10
-6.96926
 20
-5.01302
 30
0.0
 10
-6.74316
 20
-5.04289
 30
0.0
 10
-6.55686
 20
-5.14693
 30
0.0
 10
-6.60535
 20
-5.06006
 30
0.0
 10
-6.68138
 20
-4.99443
 30
0.0
 10
-6.78493
 20
-4.95005
 30
0.0
 10
-6.55768
 20
-4.98767
 30
0.0
 10
-6.41762
 20
-4.99236
 30
0.0
 10
-6.36475
 20
-4.96415
 30
0.0
 10
-6.48265
 20
-4.91871
 30
0.0
 10
-6.57332
 20
-4.8739
 30
0.0
 10
-6.63679
 20
-4.82973
 30
0.0
 10
-6.72272
 20
-4.78505
 30
0.0
 10
-6.82083
 20
-4.77138
 30
0.0
 10
-6.93111
 20
-4.78872
 30
0.0
 10
-6.80219
 20
-4.69472
 30
0.0
 10
-6.63715
 20
-4.67323
 30
0.0
 10
-6.43601
 20
-4.72425
 30
0.0
 10
-6.08041
 20
-4.78691
 30
0.0
 10
-5.79452
 20
-4.76607
 30
0.0
 10
-5.57835
 20
-4.66174
 30
0.0
 10
-5.40923
 20
-4.60899
 30
0.0
 10
-5.2663
 20
-4.57254
 30
0.0
 10
-5.14952
 20
-4.55237
 30
0.0
 10
-4.86473
 20
-4.51552
 30
0.0
 10
-5.11751
 20
-4.58028
 30
0.0
 10
-5.19677
 20
-4.63066
 30
0.0
 10
-5.3592
 20
-4.73393
 30
0.0
 10
-5.48609
 20
-4.81086
 30
0.0
 10
-5.57743
 20
-4.86142
 30
0.0
 10
-5.75523
 20
-4.95984
 30
0.0
 10
-5.80002
 20
-4.95871
 30
0.0
 10
-5.95446
 20
-5.12744
 30
0.0
 10
-6.01264
 20
-5.18009
 30
0.0
 10
-6.06786
 20
-5.21002
 30
0.0
 10
-6.12014
 20
-5.21726
 30
0.0
 10
-6.00693
 20
-5.25764
 30
0.0
 10
-5.88023
 20
-5.2648
 30
0.0
 10
-5.74003
 20
-5.23873
 30
0.0
 10
-5.87244
 20
-5.39565
 30
0.0
 10
-6.05371
 20
-5.46205
 30
0.0
 10
-6.28385
 20
-5.43792
 30
0.0
 10
-6.22257
 20
-5.49688
 30
0.0
 10
-6.11925
 20
-5.54635
 30
0.0
 10
-5.9739
 20
-5.58632
 30
0.0
 10
-5.9739
 20
-5.58632
 30
0.0
 10
-6.56642
 20
-5.58437
 30
0.0
 10
-6.56642
 20
-5.58437
 30
0.0
 10
-6.56642
 20
-5.58437
 30
0.0
 10
-6.37734
 20
-5.71691
 30
0.0
 10
-6.37734
 20
-5.71691
 30
0.0
 10
-6.31721
 20
-5.76829
 30
0.0
 10
-6.35879
 20
-5.78193
 30
0.0
 10
-6.50209
 20
-5.75784
 30
0.0
 10
-6.28209
 20
-5.90639
 30
0.0
 10
-5.96827
 20
-5.94212
 30
0.0
 10
-5.56063
 20
-5.86503
 30
0.0
 10
-5.74936
 20
-5.96282
 30
0.0
 10
-5.89555
 20
-6.04858
 30
0.0
 10
-5.99919
 20
-6.12232
 30
0.0
 10
-6.17716
 20
-6.21378
 30
0.0
 10
-6.29801
 20
-6.25407
 30
0.0
 10
-6.36172
 20
-6.24317
 30
0.0
 10
-6.34297
 20
-6.28583
 30
0.0
 10
-6.16559
 20
-6.30857
 30
0.0
 10
-5.8296
 20
-6.31139
 30
0.0
 10
-5.93086
 20
-6.38338
 30
0.0
 10
-6.04846
 20
-6.4334
 30
0.0
 10
-6.18238
 20
-6.46146
 30
0.0
 10
-5.99794
 20
-6.53699
 30
0.0
 10
-5.83777
 20
-6.57304
 30
0.0
 10
-5.70187
 20
-6.56963
 30
0.0
 10
-5.65482
 20
-6.57456
 30
0.0
 10
-5.63174
 20
-6.58175
 30
0.0
 10
-5.63266
 20
-6.59118
 30
0.0
 10
-5.63966
 20
-6.66369
 30
0.0
 10
-6.26569
 20
-6.62242
 30
0.0
 10
-6.31974
 20
-6.61837
 30
0.0
 10
-6.17892
 20
-6.71868
 30
0.0
 10
-6.06521
 20
-6.82199
 30
0.0
 10
-5.9786
 20
-6.92828
 30
0.0
 10
-5.83099
 20
-7.04707
 30
0.0
 10
-5.64517
 20
-7.11075
 30
0.0
 10
-5.42114
 20
-7.1193
 30
0.0
 10
-5.27553
 20
-7.13834
 30
0.0
 10
-5.17384
 20
-7.16659
 30
0.0
 10
-5.11604
 20
-7.20407
 30
0.0
 10
-5.02352
 20
-7.25088
 30
0.0
 10
-5.02481
 20
-7.27493
 30
0.0
 10
-5.11994
 20
-7.27619
 30
0.0
 10
-5.17259
 20
-7.28582
 30
0.0
 10
-5.20702
 20
-7.30467
 30
0.0
 10
-5.22324
 20
-7.33272
 30
0.0
 10
-5.1278
 20
-7.32273
 30
0.0
 10
-5.06607
 20
-7.32858
 30
0.0
 10
-5.03807
 20
-7.35026
 30
0.0
 10
-5.03807
 20
-7.35026
 30
0.0
 10
-4.82561
 20
-7.13195
 30
0.0
 10
-4.82561
 20
-7.13195
 30
0.0
 10
-4.93983
 20
-7.13164
 30
0.0
 10
-5.03085
 20
-7.12756
 30
0.0
 10
-5.09864
 20
-7.11971
 30
0.0
 10
-5.18424
 20
-7.10981
 30
0.0
 10
-5.40023
 20
-7.01792
 30
0.0
 10
-5.21348
 20
-7.02669
 30
0.0
 10
-5.10516
 20
-7.02098
 30
0.0
 10
-5.02588
 20
-6.99694
 30
0.0
 10
-4.97568
 20
-6.95456
 30
0.0
 10
-5.13496
 20
-6.93021
 30
0.0
 10
-5.26945
 20
-6.88992
 30
0.0
 10
-5.37916
 20
-6.83372
 30
0.0
 10
-5.37916
 20
-6.83372
 30
0.0
 10
-5.03024
 20
-6.70116
 30
0.0
 10
-5.03024
 20
-6.70116
 30
0.0
 10
-5.19087
 20
-6.61496
 30
0.0
 10
-5.27078
 20
-6.52464
 30
0.0
 10
-5.26997
 20
-6.43021
 30
0.0
 10
-5.1435
 20
-6.51743
 30
0.0
 10
-5.02667
 20
-6.55355
 30
0.0
 10
-4.91946
 20
-6.5386
 30
0.0
 10
-4.74437
 20
-6.51419
 30
0.0
 10
-4.2791
 20
-6.50869
 30
0.0
 10
-4.70861
 20
-6.67386
 30
0.0
 10
-4.09812
 20
-6.76946
 30
0.0
 10
-3.97205
 20
-6.83442
 30
0.0
 10
-4.3304
 20
-6.86873
 30
0.0
 10
-4.23364
 20
-6.92442
 30
0.0
 10
-4.10757
 20
-6.93936
 30
0.0
 10
-3.95223
 20
-6.91356
 30
0.0
 10
-4.00137
 20
-7.02293
 30
0.0
 10
-4.09623
 20
-7.08596
 30
0.0
 10
-4.23681
 20
-7.10264
 30
0.0
 10
-4.1411
 20
-7.2223
 30
0.0
 10
-4.11184
 20
-7.3334
 30
0.0
 10
-4.14907
 20
-7.43593
 30
0.0
 10
-4.2514
 20
-7.29325
 30
0.0
 10
-4.44525
 20
-7.25142
 30
0.0
 10
-4.5973
 20
-7.33921
 30
0.0
 10
-4.74935
 20
-7.427
 30
0.0
 10
-4.81006
 20
-7.61579
 30
0.0
 10
-4.73766
 20
-7.77575
 30
0.0
 10
-4.65209
 20
-7.93743
 30
0.0
 10
-4.48289
 20
-7.98264
 30
0.0
 10
-4.2393
 20
-7.93901
 30
0.0
 10
-4.21295
 20
-7.9343
 30
0.0
 10
-4.09655
 20
-7.9209
 30
0.0
 10
-4.07081
 20
-7.93257
 30
0.0
 10
-4.02058
 20
-7.95533
 30
0.0
 10
-4.2315
 20
-7.98976
 30
0.0
 10
-4.23774
 20
-7.99138
 30
0.0
 10
-4.33428
 20
-8.01647
 30
0.0
 10
-4.41161
 20
-8.06651
 30
0.0
 10
-4.46968
 20
-8.14151
 30
0.0
 10
-4.19546
 20
-8.18638
 30
0.0
 10
-4.16327
 20
-8.2208
 30
0.0
 10
-4.3731
 20
-8.24478
 30
0.0
 10
-4.26649
 20
-8.32121
 30
0.0
 10
-4.19118
 20
-8.43276
 30
0.0
 10
-4.14721
 20
-8.57942
 30
0.0
 10
-4.11963
 20
-8.67139
 30
0.0
 10
-4.06615
 20
-8.79358
 30
0.0
 10
-3.96374
 20
-8.82172
 30
0.0
 10
-3.91267
 20
-8.8624
 30
0.0
 10
-3.95068
 20
-8.90399
 30
0.0
 10
-3.99882
 20
-8.8763
 30
0.0
 10
-4.11358
 20
-8.81796
 30
0.0
 10
-4.19999
 20
-8.72958
 30
0.0
 10
-4.25803
 20
-8.61116
 30
0.0
 10
-4.34824
 20
-8.45528
 30
0.0
 10
-4.50188
 20
-8.36173
 30
0.0
 10
-4.71895
 20
-8.33049
 30
0.0
 10
-4.89614
 20
-8.28708
 30
0.0
 10
-4.98644
 20
-8.2078
 30
0.0
 10
-4.98986
 20
-8.09267
 30
0.0
 10
-4.88955
 20
-8.12682
 30
0.0
 10
-4.81873
 20
-8.12748
 30
0.0
 10
-4.7774
 20
-8.09463
 30
0.0
 10
-4.9742
 20
-8.01959
 30
0.0
 10
-4.9606
 20
-7.87975
 30
0.0
 10
-5.09888
 20
-7.80786
 30
0.0
 10
-5.20799
 20
-7.75114
 30
0.0
 10
-5.35682
 20
-7.74275
 30
0.0
 10
-5.54536
 20
-7.78273
 30
0.0
 10
-5.52485
 20
-7.7033
 30
0.0
 10
-5.42544
 20
-7.62793
 30
0.0
 10
-5.24711
 20
-7.55661
 30
0.0
 10
-5.72583
 20
-7.61791
 30
0.0
 10
-6.0377
 20
-7.57437
 30
0.0
 10
-6.18271
 20
-7.42601
 30
0.0
 10
-6.27279
 20
-7.36093
 30
0.0
 10
-6.34491
 20
-7.26348
 30
0.0
 10
-6.39905
 20
-7.13363
 30
0.0
 10
-6.38602
 20
-7.1008
 30
0.0
 10
-6.37238
 20
-7.09756
 30
0.0
 10
-6.35812
 20
-7.12389
 30
0.0
 10
-6.19749
 20
-7.23989
 30
0.0
 10
-6.05779
 20
-7.27693
 30
0.0
 10
-5.93904
 20
-7.235
 30
0.0
 10
-6.13493
 20
-7.12716
 30
0.0
 10
-6.311
 20
-6.98356
 30
0.0
 10
-6.46725
 20
-6.80419
 30
0.0
 10
-6.60313
 20
-6.67267
 30
0.0
 10
-6.74217
 20
-6.60835
 30
0.0
 10
-6.88438
 20
-6.61122
 30
0.0
 10
-6.79047
 20
-6.53987
 30
0.0
 10
-6.67741
 20
-6.49959
 30
0.0
 10
-6.54522
 20
-6.49037
 30
0.0
 10
-6.64396
 20
-6.41585
 30
0.0
 10
-6.82198
 20
-6.39058
 30
0.0
 10
-7.07932
 20
-6.41455
 30
0.0
 10
-6.92553
 20
-6.29801
 30
0.0
 10
-6.7682
 20
-6.20157
 30
0.0
 10
-6.60732
 20
-6.12521
 30
0.0
 10
-6.75149
 20
-6.06777
 30
0.0
 10
-6.87363
 20
-6.02683
 30
0.0
 10
-6.97374
 20
-6.00239
 30
0.0
 10
-7.14198
 20
-5.92191
 30
0.0
 10
-6.86001
 20
-5.92948
 30
0.0
 10
-6.82174
 20
-5.92987
 30
0.0
 10
-6.82174
 20
-5.92987
 30
0.0
 10
-6.5917
 20
-5.93223
 30
0.0
 10
-6.5917
 20
-5.93223
 30
0.0
 10
-6.7186
 20
-5.84368
 30
0.0
 10
-6.8284
 20
-5.73712
 30
0.0
 10
-6.92112
 20
-5.61256
 30
0.0
 10
-7.04695
 20
-5.47614
 30
0.0
 10
-7.18859
 20
-5.45664
 30
0.0
 10
-7.34604
 20
-5.55407
 30
0.0
 10
-7.27213
 20
-5.32969
 30
0.0
 10
-6.90183
 20
-5.41192
 30
0.0
 10
-6.73495
 20
-5.43515
 30
0.0
 10
-6.76071
 20
-5.38072
 30
0.0
 10
-6.83103
 20
-5.3393
 30
0.0
 10
-6.94586
 20
-5.31092
 30
0.0
 10
-6.97912
 20
-5.30271
 30
0.0
 10
-7.17906
 20
-5.25962
 30
0.0
 10
-7.01658
 20
-5.23633
 30
0.0
 10
-6.86984
 20
-5.2228
 30
0.0
 10
-6.73015
 20
-5.24944
 30
0.0
 10
-6.59751
 20
-5.31626
 30
0.0
 10
-6.77397
 20
-5.14593
 30
0.0
 10
-6.9711
 20
-5.08882
 30
0.0
 10
-7.18887
 20
-5.14492
 30
0.0
 10
-7.50236
 20
-5.22566
 30
0.0
 10
-8.04663
 20
-5.58504
 30
0.0
 10
-8.10223
 20
-5.9419
 30
0.0
 10
-7.81134
 20
-5.76409
 30
0.0
 10
-7.52187
 20
-5.71226
 30
0.0
 10
-7.23382
 20
-5.78643
 30
0.0
 10
-7.57663
 20
-5.8071
 30
0.0
 10
-7.82483
 20
-5.97603
 30
0.0
 10
-7.9784
 20
-6.2932
 30
0.0
 10
-7.61435
 20
-6.08075
 30
0.0
 10
-7.31287
 20
-6.06126
 30
0.0
 10
-7.07397
 20
-6.23472
 30
0.0
 10
-7.50349
 20
-6.1805
 30
0.0
 10
-7.79632
 20
-6.28096
 30
0.0
 10
-7.91757
 20
-6.55257
 30
0.0
 10
-8.00997
 20
-6.75955
 30
0.0
 10
-8.07375
 20
-7.40286
 30
0.0
 10
-8.1616
 20
-7.69075
 30
0.0
 10
-8.03326
 20
-7.6137
 30
0.0
 10
-7.95594
 20
-7.54544
 30
0.0
 10
-7.92962
 20
-7.486
 30
0.0
 10
-7.8811
 20
-7.73749
 30
0.0
 10
-7.94737
 20
-8.07793
 30
0.0
 10
-8.12842
 20
-8.50735
 30
0.0
 10
-7.9577
 20
-8.41093
 30
0.0
 10
-7.85504
 20
-8.30827
 30
0.0
 10
-7.82045
 20
-8.19938
 30
0.0
 10
-7.83902
 20
-8.39725
 30
0.0
 10
-7.87931
 20
-8.57398
 30
0.0
 10
-7.9413
 20
-8.72956
 30
0.0
 10
-7.81637
 20
-8.61243
 30
0.0
 10
-7.69939
 20
-8.45577
 30
0.0
 10
-7.59042
 20
-8.25961
 30
0.0
 10
-7.44641
 20
-8.00038
 30
0.0
 10
-7.13516
 20
-7.78453
 30
0.0
 10
-6.85561
 20
-7.80565
 30
0.0
 10
-6.85561
 20
-7.80565
 30
0.0
 10
-7.0057
 20
-7.93624
 30
0.0
 10
-7.0057
 20
-7.93624
 30
0.0
 10
-7.0057
 20
-7.93624
 30
0.0
 10
-6.879
 20
-7.9382
 30
0.0
 10
-6.879
 20
-7.9382
 30
0.0
 10
-7.03478
 20
-8.10128
 30
0.0
 10
-7.11274
 20
-8.23902
 30
0.0
 10
-7.11291
 20
-8.35143
 30
0.0
 10
-7.01572
 20
-8.28853
 30
0.0
 10
-6.91046
 20
-8.2359
 30
0.0
 10
-6.79714
 20
-8.19354
 30
0.0
 10
-6.74148
 20
-8.17184
 30
0.0
 10
-6.71727
 20
-8.18084
 30
0.0
 10
-6.72448
 20
-8.22055
 30
0.0
 10
-6.73553
 20
-8.28126
 30
0.0
 10
-6.84564
 20
-8.41687
 30
0.0
 10
-6.88479
 20
-8.48005
 30
0.0
 10
-6.66921
 20
-8.40506
 30
0.0
 10
-6.48847
 20
-8.37885
 30
0.0
 10
-6.34261
 20
-8.40142
 30
0.0
 10
-6.26675
 20
-8.41314
 30
0.0
 10
-6.02569
 20
-8.44409
 30
0.0
 10
-6.19862
 20
-8.52487
 30
0.0
 10
-5.99651
 20
-8.53699
 30
0.0
 10
-5.81807
 20
-8.5907
 30
0.0
 10
-5.66333
 20
-8.68599
 30
0.0
 10
-5.53512
 20
-8.7649
 30
0.0
 10
-5.43041
 20
-8.82259
 30
0.0
 10
-5.28635
 20
-8.87572
 30
0.0
 10
-5.16737
 20
-8.92798
 30
0.0
 10
-5.17192
 20
-8.95333
 30
0.0
 10
-5.29999
 20
-8.95174
 30
0.0
 10
-5.56527
 20
-8.93575
 30
0.0
 10
-5.76474
 20
-8.95525
 30
0.0
 10
-5.89839
 20
-9.01021
 30
0.0
 10
-5.75291
 20
-9.02905
 30
0.0
 10
-5.64725
 20
-9.04753
 30
0.0
 10
-5.58143
 20
-9.06563
 30
0.0
 10
-5.51342
 20
-9.08434
 30
0.0
 10
-5.34677
 20
-9.14418
 30
0.0
 10
-5.5144
 20
-9.17979
 30
0.0
 10
-5.74856
 20
-9.26775
 30
0.0
 10
-5.90578
 20
-9.39574
 30
0.0
 10
-5.98607
 20
-9.56375
 30
0.0
 10
-5.7409
 20
-9.55096
 30
0.0
 10
-5.56288
 20
-9.58149
 30
0.0
 10
-5.45199
 20
-9.65535
 30
0.0
 10
-5.38268
 20
-9.69847
 30
0.0
 10
-5.38983
 20
-9.72641
 30
0.0
 10
-5.47343
 20
-9.73917
 30
0.0
 10
-5.56141
 20
-9.78487
 30
0.0
 10
-5.60819
 20
-9.83295
 30
0.0
 10
-5.61377
 20
-9.8834
 30
0.0
 10
-5.56873
 20
-9.84523
 30
0.0
 10
-5.5265
 20
-9.82509
 30
0.0
 10
-5.48707
 20
-9.82298
 30
0.0
 10
-5.40759
 20
-9.80593
 30
0.0
 10
-5.40239
 20
-9.83257
 30
0.0
 10
-5.47148
 20
-9.9029
 30
0.0
 10
-5.53937
 20
-9.99835
 30
0.0
 10
-5.53415
 20
-10.14842
 30
0.0
 10
-5.45581
 20
-10.3531
 30
0.0
 10
-5.42074
 20
-10.53758
 30
0.0
 10
-5.42203
 20
-10.74094
 30
0.0
 10
-5.45968
 20
-10.96318
 30
0.0
 10
-5.28681
 20
-10.78308
 30
0.0
 10
-5.24782
 20
-10.80387
 30
0.0
 10
-5.34271
 20
-11.02554
 30
0.0
 10
-5.39397
 20
-11.31754
 30
0.0
 10
-5.36927
 20
-11.59561
 30
0.0
 10
-5.2686
 20
-11.85976
 30
0.0
 10
-5.19457
 20
-11.71555
 30
0.0
 10
-5.12725
 20
-11.61516
 30
0.0
 10
-5.0667
 20
-11.55857
 30
0.0
 10
-5.01056
 20
-11.50613
 30
0.0
 10
-4.90405
 20
-11.40995
 30
0.0
 10
-4.98207
 20
-11.56738
 30
0.0
 10
-5.05369
 20
-11.72787
 30
0.0
 10
-5.03678
 20
-11.92019
 30
0.0
 10
-4.93134
 20
-12.14433
 30
0.0
 10
-4.84294
 20
-11.79904
 30
0.0
 10
-4.65715
 20
-11.58801
 30
0.0
 10
-4.37393
 20
-11.51125
 30
0.0
 10
-4.14975
 20
-11.45047
 30
0.0
 10
-3.90156
 20
-11.52678
 30
0.0
 10
-3.66235
 20
-11.52153
 30
0.0
 10
-3.82449
 20
-11.64276
 30
0.0
 10
-4.06795
 20
-11.57903
 30
0.0
 10
-4.2677
 20
-11.66767
 30
0.0
 10
-4.50387
 20
-11.7725
 30
0.0
 10
-4.64934
 20
-12.00576
 30
0.0
 10
-4.70411
 20
-12.36744
 30
0.0
 10
-4.51378
 20
-12.12522
 30
0.0
 10
-4.33639
 20
-12.0089
 30
0.0
 10
-4.17196
 20
-12.01848
 30
0.0
 10
-4.45212
 20
-12.25036
 30
0.0
 10
-4.57751
 20
-12.48814
 30
0.0
 10
-4.54813
 20
-12.73183
 30
0.0
 10
-4.3876
 20
-12.55408
 30
0.0
 10
-4.35901
 20
-12.57033
 30
0.0
 10
-4.46236
 20
-12.78056
 30
0.0
 10
-4.48843
 20
-13.02535
 30
0.0
 10
-4.43969
 20
-13.25016
 30
0.0
 10
-4.31615
 20
-13.45498
 30
0.0
 10
-4.22069
 20
-13.64067
 30
0.0
 10
-4.16352
 20
-13.91875
 30
0.0
 10
-4.14463
 20
-14.28921
 30
0.0
 10
-4.04734
 20
-14.07897
 30
0.0
 10
-3.97588
 20
-13.96852
 30
0.0
 10
-3.93022
 20
-13.95785
 30
0.0
 10
-3.9337
 20
-14.12364
 30
0.0
 10
-3.88821
 20
-14.25618
 30
0.0
 10
-3.79376
 20
-14.35548
 30
0.0
 10
-3.74444
 20
-14.44969
 30
0.0
 10
-3.71325
 20
-14.52765
 30
0.0
 10
-3.70019
 20
-14.58937
 30
0.0
 10
-3.53831
 20
-14.38174
 30
0.0
 10
-3.45255
 20
-14.21151
 30
0.0
 10
-3.44291
 20
-14.0787
 30
0.0
 10
-3.41582
 20
-13.63106
 30
0.0
 10
-3.41061
 20
-13.61871
 30
0.0
 10
-3.27528
 20
-14.0592
 30
0.0
 10
-3.19492
 20
-14.24645
 30
0.0
 10
-3.04351
 20
-14.44006
 30
0.0
 10
-2.82105
 20
-14.64003
 30
0.0
 10
-2.93934
 20
-14.46779
 30
0.0
 10
-2.98416
 20
-14.2917
 30
0.0
 10
-2.95552
 20
-14.11178
 30
0.0
 10
-2.92098
 20
-14.29615
 30
0.0
 10
-2.83587
 20
-14.43
 30
0.0
 10
-2.70018
 20
-14.51331
 30
0.0
 10
-2.75578
 20
-14.32317
 30
0.0
 10
-2.87489
 20
-14.2242
 30
0.0
 10
-2.86772
 20
-14.03478
 30
0.0
 10
-2.85892
 20
-13.80287
 30
0.0
 10
-2.87907
 20
-13.62712
 30
0.0
 10
-2.92823
 20
-13.50753
 30
0.0
 10
-2.79772
 20
-13.60285
 30
0.0
 10
-2.72104
 20
-13.77081
 30
0.0
 10
-2.69819
 20
-14.0114
 30
0.0
 10
-2.67592
 20
-14.19701
 30
0.0
 10
-2.56806
 20
-14.32174
 30
0.0
 10
-2.37461
 20
-14.38561
 30
0.0
 10
-2.28288
 20
-14.41626
 30
0.0
 10
-2.19971
 20
-14.46824
 30
0.0
 10
-2.1251
 20
-14.54153
 30
0.0
 10
-2.10356
 20
-14.33372
 30
0.0
 10
-2.09965
 20
-14.15829
 30
0.0
 10
-2.11338
 20
-14.01524
 30
0.0
 10
-2.05126
 20
-14.1243
 30
0.0
 10
-1.97542
 20
-14.22259
 30
0.0
 10
-1.88584
 20
-14.31007
 30
0.0
 10
-1.78963
 20
-14.40407
 30
0.0
 10
-1.74946
 20
-14.49538
 30
0.0
 10
-1.67676
 20
-14.6078
 30
0.0
 10
-1.39127
 20
-14.32398
 30
0.0
 10
-1.32566
 20
-14.0238
 30
0.0
 10
-1.47991
 20
-13.70725
 30
0.0
 10
-1.29622
 20
-13.7937
 30
0.0
 10
-1.24944
 20
-14.07048
 30
0.0
 10
-1.33956
 20
-14.5376
 30
0.0
 10
-1.06021
 20
-14.19092
 30
0.0
 10
-1.03292
 20
-13.82578
 30
0.0
 10
-1.2577
 20
-13.44215
 30
0.0
 10
-1.11248
 20
-13.48837
 30
0.0
 10
-1.01828
 20
-13.63715
 30
0.0
 10
-0.97509
 20
-13.88849
 30
0.0
 10
-0.97509
 20
-13.88849
 30
0.0
 10
-0.93805
 20
-13.79689
 30
0.0
 10
-0.93805
 20
-13.79689
 30
0.0
 10
-0.84299
 20
-13.88999
 30
0.0
 10
-0.7988
 20
-13.9933
 30
0.0
 10
-0.8055
 20
-14.10681
 30
0.0
 10
-0.64974
 20
-13.75973
 30
0.0
 10
-0.68547
 20
-13.40561
 30
0.0
 10
-0.91272
 20
-13.04448
 30
0.0
 10
-0.53658
 20
-13.30154
 30
0.0
 10
-0.36766
 20
-13.72256
 30
0.0
 10
-0.40595
 20
-14.30754
 30
0.0
 10
-0.37953
 20
-14.26981
 30
0.0
 10
-0.36059
 20
-14.22148
 30
0.0
 10
-0.34916
 20
-14.16259
 30
0.0
 10
-0.29189
 20
-13.8674
 30
0.0
 10
-0.27879
 20
-14.0534
 30
0.0
 10
-0.23412
 20
-14.1663
 30
0.0
 10
-0.21756
 20
-14.20819
 30
0.0
 10
-0.1962
 20
-14.24357
 30
0.0
 10
-0.17009
 20
-14.27245
 30
0.0
 10
-0.17562
 20
-14.11858
 30
0.0
 10
-0.19771
 20
-13.98863
 30
0.0
 10
-0.23637
 20
-13.88261
 30
0.0
 10
-0.31366
 20
-13.70412
 30
0.0
 10
-0.34939
 20
-13.55859
 30
0.0
 10
-0.34358
 20
-13.44599
 30
0.0
 10
-0.34383
 20
-13.14826
 30
0.0
 10
-0.43479
 20
-12.90916
 30
0.0
 10
-0.61646
 20
-12.72869
 30
0.0
 10
-0.36108
 20
-12.85663
 30
0.0
 10
-0.16227
 20
-13.04765
 30
0.0
 10
-0.02003
 20
-13.30173
 30
0.0
 10
-0.02003
 20
-13.30173
 30
0.0
 10
-0.03366
 20
-13.12631
 30
0.0
 10
-0.03366
 20
-13.12631
 30
0.0
 10
0.07726
 20
-13.28386
 30
0.0
 10
0.19941
 20
-13.38846
 30
0.0
 10
0.33278
 20
-13.44011
 30
0.0
 10
0.27452
 20
-13.19107
 30
0.0
 10
0.16786
 20
-13.00078
 30
0.0
 10
0.01279
 20
-12.86927
 30
0.0
 10
-0.07684
 20
-12.79323
 30
0.0
 10
-0.10615
 20
-12.79518
 30
0.0
 10
0.03345
 20
-12.83718
 30
0.0
 10
0.03345
 20
-12.83718
 30
0.0
 10
0.24897
 20
-12.9021
 30
0.0
 10
0.24897
 20
-12.9021
 30
0.0
 10
0.2064
 20
-12.82407
 30
0.0
 10
0.16036
 20
-12.76676
 30
0.0
 10
0.11419
 20
-12.72627
 30
0.0
 10
-0.0577
 20
-12.57556
 30
0.0
 10
0.1455
 20
-12.66792
 30
0.0
 10
0.19149
 20
-12.6848
 30
0.0
 10
0.23011
 20
-12.69897
 30
0.0
 10
0.26579
 20
-12.70867
 30
0.0
 10
0.29799
 20
-12.71548
 30
0.0
 10
0.45681
 20
-12.74906
 30
0.0
 10
0.58179
 20
-12.78933
 30
0.0
 10
0.69584
 20
-12.92106
 30
0.0
 10
0.59405
 20
-12.67422
 30
0.0
 10
0.52777
 20
-12.4793
 30
0.0
 10
0.49701
 20
-12.33628
 30
0.0
 10
0.41142
 20
-12.07319
 30
0.0
 10
0.28018
 20
-11.90686
 30
0.0
 10
0.10328
 20
-11.83729
 30
0.0
 10
0.2131
 20
-12.12271
 30
0.0
 10
0.30537
 20
-12.27865
 30
0.0
 10
0.38006
 20
-12.3051
 30
0.0
 10
0.21118
 20
-12.27554
 30
0.0
 10
0.07214
 20
-12.1521
 30
0.0
 10
-0.03706
 20
-11.93475
 30
0.0
 10
-0.09828
 20
-11.84522
 30
0.0
 10
-0.15935
 20
-11.78155
 30
0.0
 10
-0.22029
 20
-11.74373
 30
0.0
 10
-0.36317
 20
-12.05437
 30
0.0
 10
-0.29054
 20
-12.34724
 30
0.0
 10
-0.09733
 20
-12.61661
 30
0.0
 10
-0.08802
 20
-12.62962
 30
0.0
 10
-0.04995
 20
-12.67946
 30
0.0
 10
-0.0641
 20
-12.69265
 30
0.0
 10
-0.07674
 20
-12.70445
 30
0.0
 10
-0.12875
 20
-12.65157
 30
0.0
 10
-0.13933
 20
-12.64115
 30
0.0
 10
-0.29407
 20
-12.48851
 30
0.0
 10
-0.39968
 20
-12.3089
 30
0.0
 10
-0.45616
 20
-12.10229
 30
0.0
 10
-0.42294
 20
-11.84071
 30
0.0
 10
-0.48855
 20
-11.65548
 30
0.0
 10
-0.65296
 20
-11.54665
 30
0.0
 10
-0.73395
 20
-11.49304
 30
0.0
 10
-0.84112
 20
-11.45934
 30
0.0
 10
-0.93592
 20
-11.40648
 30
0.0
 10
-1.08048
 20
-11.32589
 30
0.0
 10
-1.21703
 20
-11.22656
 30
0.0
 10
-1.35084
 20
-11.14719
 30
0.0
 10
-1.45781
 20
-11.07974
 30
0.0
 10
-1.42826
 20
-11.0466
 30
0.0
 10
-1.32649
 20
-11.10625
 30
0.0
 10
-0.89584
 20
-11.37652
 30
0.0
 10
-0.4901
 20
-11.57403
 30
0.0
 10
-0.10926
 20
-11.69878
 30
0.0
 10
-0.01672
 20
-11.72937
 30
0.0
 10
0.06788
 20
-11.75134
 30
0.0
 10
0.14451
 20
-11.76471
 30
0.0
 10
0.34408
 20
-11.7995
 30
0.0
 10
0.4346
 20
-11.73108
 30
0.0
 10
0.48717
 20
-12.01452
 30
0.0
 10
0.63454
 20
-12.45367
 30
0.0
 10
0.77162
 20
-12.78436
 30
0.0
 10
0.8984
 20
-13.00659
 30
0.0
 10
1.09673
 20
-13.30453
 30
0.0
 10
1.21757
 20
-13.45915
 30
0.0
 10
1.26093
 20
-13.47048
 30
0.0
 10
1.14327
 20
-13.45032
 30
0.0
 10
0.90157
 20
-13.30478
 30
0.0
 10
0.53584
 20
-13.03385
 30
0.0
 10
0.66232
 20
-13.26291
 30
0.0
 10
0.75931
 20
-13.43368
 30
0.0
 10
0.82679
 20
-13.54617
 30
0.0
 10
0.83867
 20
-13.56595
 30
0.0
 10
1.06044
 20
-13.85826
 30
0.0
 10
0.89838
 20
-13.75115
 30
0.0
 10
0.77564
 20
-13.62306
 30
0.0
 10
0.68208
 20
-13.52365
 30
0.0
 10
0.6177
 20
-13.45292
 30
0.0
 10
0.73752
 20
-13.71556
 30
0.0
 10
0.73556
 20
-13.77662
 30
0.0
 10
0.61183
 20
-13.63612
 30
0.0
 10
0.65925
 20
-13.7503
 30
0.0
 10
0.73202
 20
-13.86075
 30
0.0
 10
0.83014
 20
-13.96747
 30
0.0
 10
0.83014
 20
-13.96747
 30
0.0
 10
0.40912
 20
-13.74331
 30
0.0
 10
0.40912
 20
-13.74331
 30
0.0
 10
0.51215
 20
-13.92182
 30
0.0
 10
0.57192
 20
-14.0628
 30
0.0
 10
0.58843
 20
-14.16626
 30
0.0
 10
0.58939
 20
-14.23814
 30
0.0
 10
0.57249
 20
-14.24172
 30
0.0
 10
0.53775
 20
-14.17699
 30
0.0
 10
0.43816
 20
-13.95879
 30
0.0
 10
0.26403
 20
-13.79603
 30
0.0
 10
0.01536
 20
-13.68873
 30
0.0
 10
0.0992
 20
-13.89497
 30
0.0
 10
0.1152
 20
-14.08407
 30
0.0
 10
0.13168
 20
-14.25398
 30
0.0
 10
0.14369
 20
-14.37776
 30
0.0
 10
0.07942
 20
-14.57088
 30
0.0
 10
0.04264
 20
-14.32605
 30
0.0
 10
0.0538
 20
-14.56727
 30
0.0
 10
0.06711
 20
-14.76706
 30
0.0
 10
0.08258
 20
-14.92543
 30
0.0
 10
0.06437
 20
-15.04872
 30
0.0
 10
0.01092
 20
-14.85929
 30
0.0
 10
0.00443
 20
-14.84287
 30
0.0
 10
-0.04304
 20
-14.72287
 30
0.0
 10
-0.13264
 20
-14.6029
 30
0.0
 10
-0.26436
 20
-14.48295
 30
0.0
 10
-0.26436
 20
-14.48295
 30
0.0
 10
-0.26632
 20
-14.82212
 30
0.0
 10
-0.26632
 20
-14.82212
 30
0.0
 10
-0.27724
 20
-14.87468
 30
0.0
 10
-0.28634
 20
-14.87662
 30
0.0
 10
-0.29361
 20
-14.82796
 30
0.0
 10
-0.31354
 20
-14.75501
 30
0.0
 10
-0.42009
 20
-14.60818
 30
0.0
 10
-0.61327
 20
-14.38744
 30
0.0
 10
-0.73241
 20
-14.62238
 30
0.0
 10
-0.7844
 20
-14.76402
 30
0.0
 10
-0.76922
 20
-14.81237
 30
0.0
 10
-0.71028
 20
-14.89041
 30
0.0
 10
-0.76551
 20
-14.92873
 30
0.0
 10
-0.8063
 20
-14.8484
 30
0.0
 10
-0.90665
 20
-14.59336
 30
0.0
 10
-0.95766
 20
-14.4267
 30
0.0
 10
-0.95936
 20
-14.34843
 30
0.0
 10
-1.01726
 20
-14.49924
 30
0.0
 10
-1.05235
 20
-14.65257
 30
0.0
 10
-1.06461
 20
-14.80845
 30
0.0
 10
-1.10036
 20
-14.96688
 30
0.0
 10
-1.14585
 20
-15.05785
 30
0.0
 10
-1.20106
 20
-15.08134
 30
0.0
 10
-1.14644
 20
-14.90275
 30
0.0
 10
-1.14384
 20
-14.75656
 30
0.0
 10
-1.19327
 20
-14.64276
 30
0.0
 10
-1.30134
 20
-14.7771
 30
0.0
 10
-1.34877
 20
-14.9051
 30
0.0
 10
-1.33556
 20
-15.02676
 30
0.0
 10
-1.3975
 20
-14.94413
 30
0.0
 10
-1.43196
 20
-14.82394
 30
0.0
 10
-1.43893
 20
-14.66618
 30
0.0
 10
-1.53047
 20
-14.8146
 30
0.0
 10
-1.56946
 20
-14.96729
 30
0.0
 10
-1.5559
 20
-15.12423
 30
0.0
 10
-1.64962
 20
-15.02137
 30
0.0
 10
-1.76073
 20
-14.85243
 30
0.0
 10
-1.88924
 20
-14.61742
 30
0.0
 10
-1.88924
 20
-14.61742
 30
0.0
 10
-1.91074
 20
-15.01114
 30
0.0
 10
-1.91074
 20
-15.01114
 30
0.0
 10
-2.05733
 20
-14.84375
 30
0.0
 10
-2.20482
 20
-14.70797
 30
0.0
 10
-2.35321
 20
-14.60376
 30
0.0
 10
-2.26031
 20
-14.79858
 30
0.0
 10
-2.20055
 20
-14.94997
 30
0.0
 10
-2.1739
 20
-15.05791
 30
0.0
 10
-2.14437
 20
-15.15614
 30
0.0
 10
-2.15606
 20
-15.1594
 30
0.0
 10
-2.20899
 20
-15.06766
 30
0.0
 10
-2.28974
 20
-14.92141
 30
0.0
 10
-2.44568
 20
-14.7817
 30
0.0
 10
-2.67681
 20
-14.64856
 30
0.0
 10
-2.57583
 20
-14.83488
 30
0.0
 10
-2.55829
 20
-15.0168
 30
0.0
 10
-2.62421
 20
-15.19432
 30
0.0
 10
-2.76006
 20
-14.66552
 30
0.0
 10
-3.18639
 20
-14.74231
 30
0.0
 10
-3.35124
 20
-14.38149
 30
0.0
 10
-3.54471
 20
-14.72953
 30
0.0
 10
-3.57525
 20
-14.96732
 30
0.0
 10
-3.47794
 20
-15.14166
 30
0.0
 10
-3.45964
 20
-15.18799
 30
0.0
 10
-3.46875
 20
-15.1948
 30
0.0
 10
-3.50526
 20
-15.1621
 30
0.0
 10
-3.70233
 20
-14.97678
 30
0.0
 10
-3.84948
 20
-14.75815
 30
0.0
 10
-3.94674
 20
-14.5062
 30
0.0
 10
-3.95675
 20
-14.67686
 30
0.0
 10
-3.93661
 20
-14.7977
 30
0.0
 10
-3.88632
 20
-14.86873
 30
0.0
 10
-3.86351
 20
-14.92389
 30
0.0
 10
-3.87585
 20
-14.93363
 30
0.0
 10
-3.92334
 20
-14.89794
 30
0.0
 10
-4.43614
 20
-14.46022
 30
0.0
 10
-4.30854
 20
-13.86998
 30
0.0
 10
-4.66212
 20
-13.49452
 30
0.0
 10
-4.61529
 20
-13.77912
 30
0.0
 10
-4.66272
 20
-13.78367
 30
0.0
 10
-4.80441
 20
-13.50817
 30
0.0
 10
-4.82725
 20
-13.42155
 30
0.0
 10
-4.84479
 20
-13.33968
 30
0.0
 10
-4.85703
 20
-13.26257
 30
0.0
 10
-4.90402
 20
-13.30021
 30
0.0
 10
-4.9313
 20
-13.37363
 30
0.0
 10
-4.9389
 20
-13.48282
 30
0.0
 10
-4.96301
 20
-13.5322
 30
0.0
 10
-4.9851
 20
-13.53219
 30
0.0
 10
-5.00517
 20
-13.4828
 30
0.0
 10
-5.02116
 20
-13.28621
 30
0.0
 10
-5.03834
 20
-13.14182
 30
0.0
 10
-5.0567
 20
-13.04964
 30
0.0
 10
-5.08861
 20
-12.88947
 30
0.0
 10
-5.10598
 20
-12.54991
 30
0.0
 10
-5.12017
 20
-12.95163
 30
0.0
 10
-5.14068
 20
-12.99709
 30
0.0
 10
-5.15952
 20
-12.99579
 30
0.0
 10
-5.17669
 20
-12.94773
 30
0.0
 10
-5.1996
 20
-12.79984
 30
0.0
 10
-5.28668
 20
-12.6478
 30
0.0
 10
-5.43792
 20
-12.49161
 30
0.0
 10
-5.58906
 20
-12.33419
 30
0.0
 10
-5.66184
 20
-12.17176
 30
0.0
 10
-5.65623
 20
-12.00431
 30
0.0
 10
-5.69439
 20
-12.0433
 30
0.0
 10
-5.70674
 20
-12.10632
 30
0.0
 10
-5.69327
 20
-12.19337
 30
0.0
 10
-5.88254
 20
-11.98327
 30
0.0
 10
-5.93134
 20
-11.72995
 30
0.0
 10
-5.83969
 20
-11.43343
 30
0.0
 10
-5.83567
 20
-11.42043
 30
0.0
 10
-5.78458
 20
-11.29279
 30
0.0
 10
-5.84141
 20
-11.34449
 30
0.0
 10
-5.8546
 20
-11.35817
 30
0.0
 10
-5.88336
 20
-11.3984
 30
0.0
 10
-5.90694
 20
-11.43236
 30
0.0
 10
-5.91993
 20
-11.45107
 30
0.0
 10
-5.97934
 20
-11.54602
 30
0.0
 10
-5.98371
 20
-11.45755
 30
0.0
 10
-5.96296
 20
-11.3412
 30
0.0
 10
-5.91746
 20
-11.22261
 30
0.0
 10
-5.84723
 20
-11.10178
 30
0.0
 10
-5.99596
 20
-11.24219
 30
0.0
 10
-6.14741
 20
-11.43896
 30
0.0
 10
-6.02988
 20
-11.07989
 30
0.0
 10
-5.96555
 20
-10.88325
 30
0.0
 10
-5.88842
 20
-10.7268
 30
0.0
 10
-5.79849
 20
-10.61059
 30
0.0
 10
-5.89837
 20
-10.65745
 30
0.0
 10
-5.98948
 20
-10.7234
 30
0.0
 10
-6.07184
 20
-10.80844
 30
0.0
 10
-6.11602
 20
-10.83475
 30
0.0
 10
-6.13745
 20
-10.825
 30
0.0
 10
-6.13616
 20
-10.77919
 30
0.0
 10
-6.02597
 20
-10.57044
 30
0.0
 10
-5.93176
 20
-10.37617
 30
0.0
 10
-5.85353
 20
-10.19639
 30
0.0
 10
-5.97913
 20
-10.26555
 30
0.0
 10
-6.06099
 20
-10.31948
 30
0.0
 10
-6.09912
 20
-10.35816
 30
0.0
 10
-6.17089
 20
-10.43673
 30
0.0
 10
-6.2201
 20
-10.42565
 30
0.0
 10
-6.15489
 20
-10.3249
 30
0.0
 10
-6.06436
 20
-10.16357
 30
0.0
 10
-5.97677
 20
-10.02596
 30
0.0
 10
-5.89448
 20
-9.91569
 30
0.0
 10
-6.17723
 20
-9.91337
 30
0.0
 10
-6.4005
 20
-10.00977
 30
0.0
 10
-6.56426
 20
-10.20486
 30
0.0
 10
-6.6371
 20
-10.24847
 30
0.0
 10
-6.65805
 20
-10.22863
 30
0.0
 10
-6.62712
 20
-10.14532
 30
0.0
 10
-6.5366
 20
-9.95215
 30
0.0
 10
-6.42712
 20
-9.77997
 30
0.0
 10
-6.29868
 20
-9.62878
 30
0.0
 10
-6.37431
 20
-9.64891
 30
0.0
 10
-6.43019
 20
-9.68855
 30
0.0
 10
-6.46631
 20
-9.74768
 30
0.0
 10
-6.51675
 20
-9.76282
 30
0.0
 10
-6.53234
 20
-9.74918
 30
0.0
 10
-6.51309
 20
-9.70675
 30
0.0
 10
-6.42883
 20
-9.53204
 30
0.0
 10
-6.33332
 20
-9.38649
 30
0.0
 10
-6.22656
 20
-9.27012
 30
0.0
 10
-6.411
 20
-9.32284
 30
0.0
 10
-6.59811
 20
-9.46643
 30
0.0
 10
-6.78791
 20
-9.70086
 30
0.0
 10
-6.58546
 20
-9.14589
 30
0.0
 10
-6.30347
 20
-8.83401
 30
0.0
 10
-5.94196
 20
-8.76524
 30
0.0
 10
-6.2332
 20
-8.68461
 30
0.0
 10
-6.52882
 20
-8.75347
 30
0.0
 10
-6.8288
 20
-8.97182
 30
0.0
 10
-6.89584
 20
-9.0206
 30
0.0
 10
-6.93048
 20
-9.06654
 30
0.0
 10
-6.88524
 20
-8.94219
 30
0.0
 10
-6.85064
 20
-8.84706
 30
0.0
 10
-6.77075
 20
-8.72504
 30
0.0
 10
-6.64561
 20
-8.57612
 30
0.0
 10
-6.84538
 20
-8.59929
 30
0.0
 10
-7.00717
 20
-8.70974
 30
0.0
 10
-7.13096
 20
-8.90746
 30
0.0
 10
-7.18157
 20
-9.00841
 30
0.0
 10
-7.20236
 20
-9.00646
 30
0.0
 10
-7.19335
 20
-8.9016
 30
0.0
 10
-7.18352
 20
-8.77869
 30
0.0
 10
-7.16988
 20
-8.68902
 30
0.0
 10
-7.15241
 20
-8.63261
 30
0.0
 10
-7.33634
 20
-8.75438
 30
0.0
 10
-7.43575
 20
-8.88885
 30
0.0
 10
-7.45065
 20
-9.03605
 30
0.0
 10
-7.47426
 20
-9.10232
 30
0.0
 10
-7.49506
 20
-9.10102
 30
0.0
 10
-7.51302
 20
-9.03216
 30
0.0
 10
-7.51718
 20
-8.76085
 30
0.0
 10
-7.47624
 20
-8.54969
 30
0.0
 10
-7.39023
 20
-8.39867
 30
0.0
 10
-7.5773
 20
-8.65963
 30
0.0
 10
-7.73322
 20
-8.82497
 30
0.0
 10
-7.858
 20
-8.89472
 30
0.0
 10
-8.13676
 20
-9.06058
 30
0.0
 10
-8.34857
 20
-9.29187
 30
0.0
 10
-8.49343
 20
-9.5886
 30
0.0
 10
-8.53538
 20
-9.73094
 30
0.0
 10
-8.55552
 20
-9.72899
 30
0.0
 10
-8.55387
 20
-9.58276
 30
0.0
 10
-8.52395
 20
-9.32477
 30
0.0
 10
-8.43299
 20
-9.09476
 30
0.0
 10
-8.28098
 20
-8.89274
 30
0.0
 10
-8.3414
 20
-8.91266
 30
0.0
 10
-8.41287
 20
-8.98348
 30
0.0
 10
-8.49539
 20
-9.1052
 30
0.0
 10
-8.54466
 20
-9.15497
 30
0.0
 10
-8.5687
 20
-9.14391
 30
0.0
 10
-8.56751
 20
-9.07204
 30
0.0
 10
-8.53271
 20
-8.83463
 30
0.0
 10
-8.45929
 20
-8.62216
 30
0.0
 10
-8.34724
 20
-8.43464
 30
0.0
 10
-8.21931
 20
-8.19046
 30
0.0
 10
-8.15304
 20
-8.01764
 30
0.0
 10
-8.14843
 20
-7.91617
 30
0.0
 10
-8.30311
 20
-8.10337
 30
0.0
 10
-8.46035
 20
-8.19304
 30
0.0
 10
-8.62013
 20
-8.18515
 30
0.0
 10
-8.40143
 20
-8.02849
 30
0.0
 10
-8.49061
 20
-7.90828
 30
0.0
 10
-8.46148
 20
-7.70742
 30
0.0
 10
-8.43515
 20
-7.52597
 30
0.0
 10
-8.38537
 20
-7.39674
 30
0.0
 10
-8.31217
 20
-7.3197
 30
0.0
 10
-8.33478
 20
-7.32191
 30
0.0
 10
-8.35788
 20
-7.329
 30
0.0
 10
-8.38147
 20
-7.34095
 30
0.0
 10
-8.44863
 20
-7.37496
 30
0.0
 10
-8.64053
 20
-7.58622
 30
0.0
 10
-8.50721
 20
-7.33416
 30
0.0
 10
-8.46332
 20
-7.25122
 30
0.0
 10
-8.42949
 20
-7.17945
 30
0.0
 10
-8.40575
 20
-7.11889
 30
0.0
 10
-8.50411
 20
-7.13776
 30
0.0
 10
-8.55869
 20
-7.13126
 30
0.0
 10
-8.56948
 20
-7.09939
 30
0.0
 10
-8.37215
 20
-7.01447
 30
0.0
 10
-8.25131
 20
-6.77893
 30
0.0
 10
-8.20696
 20
-6.39278
 30
0.0
 10
-8.33291
 20
-6.53296
 30
0.0
 10
-8.43946
 20
-6.62912
 30
0.0
 10
-8.52662
 20
-6.68126
 30
0.0
 10
-8.62912
 20
-6.72663
 30
0.0
 10
-8.5534
 20
-6.50746
 30
0.0
 10
-8.54219
 20
-6.4431
 30
0.0
 10
-8.45745
 20
-5.9566
 30
0.0
 10
-8.38102
 20
-5.76082
 30
0.0
 10
-8.37995
 20
-5.75807
 30
0.0
 10
-8.26964
 20
-5.51901
 30
0.0
 10
-8.14952
 20
-5.37704
 30
0.0
 10
-8.0196
 20
-5.33217
 30
0.0
 10
-8.16009
 20
-5.32387
 30
0.0
 10
-8.30823
 20
-5.39403
 30
0.0
 10
-8.46401
 20
-5.54267
 30
0.0
 10
-8.44844
 20
-5.28884
 30
0.0
 10
-8.27431
 20
-5.09132
 30
0.0
 10
-7.94162
 20
-4.95013
 30
0.0
 10
-8.07936
 20
-4.9304
 30
0.0
 10
-8.19567
 20
-4.93818
 30
0.0
 10
-8.29056
 20
-4.97345
 30
0.0
 10
-8.24727
 20
-4.88138
 30
0.0
 10
-8.15371
 20
-4.80926
 30
0.0
 10
-8.00988
 20
-4.75709
 30
0.0
 10
-8.13674
 20
-4.7421
 30
0.0
 10
-8.216
 20
-4.70896
 30
0.0
 10
-8.24768
 20
-4.65764
 30
0.0
 10
-8.07345
 20
-4.64888
 30
0.0
 10
-7.95
 20
-4.60989
 30
0.0
 10
-7.87734
 20
-4.54069
 30
0.0
 10
-8.00616
 20
-4.52631
 30
0.0
 10
-8.08932
 20
-4.47823
 30
0.0
 10
-8.12684
 20
-4.39645
 30
0.0
 10
-7.9361
 20
-4.41863
 30
0.0
 10
-7.80063
 20
-4.32864
 30
0.0
 10
-7.72042
 20
-4.12647
 30
0.0
 10
-7.72042
 20
-4.12647
 30
0.0
 10
-7.94262
 20
-4.22589
 30
0.0
 10
-7.94262
 20
-4.22589
 30
0.0
 10
-7.83814
 20
-4.03467
 30
0.0
 10
-7.7017
 20
-3.89173
 30
0.0
 10
-7.5333
 20
-3.79707
 30
0.0
 10
-7.65497
 20
-3.58975
 30
0.0
 10
-7.5956
 20
-2.99073
 30
0.0
 10
-7.95771
 20
-3.04709
 30
0.0
 10
-8.04004
 20
-3.05989
 30
0.0
 10
-8.11804
 20
-3.1005
 30
0.0
 10
-7.99069
 20
-2.98963
 30
0.0
 10
-7.93672
 20
-2.94263
 30
0.0
 10
-7.8739
 20
-2.92267
 30
0.0
 10
-7.80224
 20
-2.92977
 30
0.0
 10
-7.92975
 20
-2.61039
 30
0.0
 10
-8.2523
 20
-2.73257
 30
0.0
 10
-8.04562
 20
-2.65311
 30
0.0
 10
-7.96681
 20
-2.62279
 30
0.0
 10
-7.87852
 20
-2.62534
 30
0.0
 10
-7.78079
 20
-2.66077
 30
0.0
 10
-7.77897
 20
-2.11824
 30
0.0
 10
-8.30364
 20
-2.59069
 30
0.0
 10
-8.18151
 20
-2.35486
 30
0.0
 10
-8.14667
 20
-2.28757
 30
0.0
 10
-8.06701
 20
-2.23297
 30
0.0
 10
-7.94258
 20
-2.19104
 30
0.0
 10
-8.06518
 20
-2.05137
 30
0.0
 10
-8.36111
 20
-2.19973
 30
0.0
 10
-8.19613
 20
-2.0553
 30
0.0
 10
-8.14621
 20
-2.0116
 30
0.0
 10
-8.09612
 20
-1.97758
 30
0.0
 10
-8.04588
 20
-1.95327
 30
0.0
 10
-8.17425
 20
-1.87813
 30
0.0
 10
-8.2558
 20
-1.87991
 30
0.0
 10
-8.13772
 20
-1.81651
 30
0.0
 10
-8.09339
 20
-1.79272
 30
0.0
 10
-8.04783
 20
-1.77658
 30
0.0
 10
-8.00105
 20
-1.76811
 30
0.0
 10
-8.10819
 20
-1.69885
 30
0.0
 10
-8.13619
 20
-1.71251
 30
0.0
 10
-7.99993
 20
-1.65824
 30
0.0
 10
-7.87401
 20
-1.60806
 30
0.0
 10
-7.76879
 20
-1.61286
 30
0.0
 10
-7.68427
 20
-1.67262
 30
0.0
 10
-7.7801
 20
-1.55871
 30
0.0
 10
-7.88469
 20
-1.49705
 30
0.0
 10
-7.99803
 20
-1.48766
 30
0.0
 10
-8.03835
 20
-1.45539
 30
0.0
 10
-8.03446
 20
-1.4307
 30
0.0
 10
-7.98634
 20
-1.41359
 30
0.0
 10
-7.88512
 20
-1.39697
 30
0.0
 10
-7.82274
 20
-1.38787
 30
0.0
 10
-7.79922
 20
-1.3863
 30
0.0
 10
-7.85621
 20
-1.23953
 30
0.0
 10
-7.92119
 20
-1.12778
 30
0.0
 10
-7.99414
 20
-1.05105
 30
0.0
 10
-7.99414
 20
-1.05105
 30
0.0
 10
-7.80118
 20
-1.05688
 30
0.0
 10
-7.80118
 20
-1.05688
 30
0.0
 10
-7.89969
 20
-0.81207
 30
0.0
 10
-7.92567
 20
-0.58727
 30
0.0
 10
-7.87913
 20
-0.38248
 30
0.0
 10
-7.87913
 20
-0.38248
 30
0.0
 10
-7.82261
 20
-0.52087
 30
0.0
 10
-7.82261
 20
-0.52087
 30
0.0
 10
-7.87217
 20
0.16534
 30
0.0
 10
-7.776
 20
0.87028
 30
0.0
 10
-7.5341
 20
1.59394
 30
0.0
 10
-7.3037
 20
2.54895
 30
0.0
 10
-7.07499
 20
3.38839
 30
0.0
 10
-6.84797
 20
4.11226
 30
0.0
 10
-6.65328
 20
4.97002
 30
0.0
 10
-6.42978
 20
5.55216
 30
0.0
 10
-6.17744
 20
5.85868
 30
0.0
 10
-5.96776
 20
6.07273
 30
0.0
 10
-5.70266
 20
6.10131
 30
0.0
 10
-5.38217
 20
5.94444
 30
0.0
 10
-5.04286
 20
5.70567
 30
0.0
 10
-4.77646
 20
5.46527
 30
0.0
 10
-4.58301
 20
5.22326
 30
0.0
 10
-4.41387
 20
4.99989
 30
0.0
 10
-4.20596
 20
4.62045
 30
0.0
 10
-3.95927
 20
4.08493
 30
0.0
 10
-3.95927
 20
4.08493
 30
0.0
 10
-2.89498
 20
1.75372
 30
0.0
 10
-2.89498
 20
1.75372
 30
0.0
 10
-2.74901
 20
1.33488
 30
0.0
 10
-2.65545
 20
1.11137
 30
0.0
 10
-2.6143
 20
1.08321
 30
0.0
 10
-2.40392
 20
0.81921
 30
0.0
 10
-2.41558
 20
0.76832
 30
0.0
 10
-2.18584
 20
0.99383
 30
0.0
 10
-2.03533
 20
1.14158
 30
0.0
 10
-1.92085
 20
1.30782
 30
0.0
 10
-1.84243
 20
1.49254
 30
0.0
 10
-1.56611
 20
2.04471
 30
0.0
 10
-1.37898
 20
2.37603
 30
0.0
 10
-1.28104
 20
2.48653
 30
0.0
 10
-1.01587
 20
2.89217
 30
0.0
 10
-0.85992
 20
3.18583
 30
0.0
 10
-0.81323
 20
3.36753
 30
0.0
 10
-0.74032
 20
3.56846
 30
0.0
 10
-0.61769
 20
3.88507
 30
0.0
 10
-0.47322
 20
4.2245
 30
0.0
 10
-0.47322
 20
4.2245
 30
0.0
 10
-0.40451
 20
4.19979
 30
0.0
 10
-0.40451
 20
4.19979
 30
0.0
 10
-0.49069
 20
4.00046
 30
0.0
 10
-0.57696
 20
3.78414
 30
0.0
 10
-0.66327
 20
3.55081
 30
0.0
 10
-0.80874
 20
3.14974
 30
0.0
 10
-0.9335
 20
2.86515
 30
0.0
 10
-1.03755
 20
2.69705
 30
0.0
 10
-1.22303
 20
2.34316
 30
0.0
 10
-1.34389
 20
2.04168
 30
0.0
 10
-1.40012
 20
1.79263
 30
0.0
 10
-1.45052
 20
1.60797
 30
0.0
 10
-1.49036
 20
1.48365
 30
0.0
 10
-1.51965
 20
1.41968
 30
0.0
 10
-1.59435
 20
1.23873
 30
0.0
 10
-1.82045
 20
1.03796
 30
0.0
 10
-2.19796
 20
0.81739
 30
0.0
 10
-2.19796
 20
0.81739
 30
0.0
 10
-1.62296
 20
0.82128
 30
0.0
 10
-1.62296
 20
0.82128
 30
0.0
 10
-1.93984
 20
1.08769
 30
0.0
 10
-1.85862
 20
1.10783
 30
0.0
 10
-1.37931
 20
0.88171
 30
0.0
 10
-1.46081
 20
1.06893
 30
0.0
 10
-1.47707
 20
1.2112
 30
0.0
 10
-1.42807
 20
1.30853
 30
0.0
 10
-1.37103
 20
1.14471
 30
0.0
 10
-1.29704
 20
1.0134
 30
0.0
 10
-1.20614
 20
0.91461
 30
0.0
 10
-1.02501
 20
0.71781
 30
0.0
 10
-1.01485
 20
0.70655
 30
0.0
 10
-0.91358
 20
0.89095
 30
0.0
 10
-0.85614
 20
0.99557
 30
0.0
 10
-0.76093
 20
1.12338
 30
0.0
 10
-0.62797
 20
1.27438
 30
0.0
 10
-0.53381
 20
1.37666
 30
0.0
 10
-0.52342
 20
1.54817
 30
0.0
 10
-0.59682
 20
1.78892
 30
0.0
 10
-0.69296
 20
2.40513
 30
0.0
 10
-0.56301
 20
2.76822
 30
0.0
 10
-0.41308
 20
3.33879
 30
0.0
 10
-0.20498
 20
4.13058
 30
0.0
 10
-0.01155
 20
4.77565
 30
0.0
 10
0.1672
 20
5.27397
 30
0.0
 10
-0.01702
 20
5.00802
 30
0.0
 10
-0.20155
 20
4.66386
 30
0.0
 10
-0.38636
 20
4.24151
 30
0.0
 10
-0.38636
 20
4.24151
 30
0.0
 10
-0.45497
 20
4.26724
 30
0.0
 10
-0.45497
 20
4.26724
 30
0.0
 10
-0.20801
 20
4.84335
 30
0.0
 10
0.09797
 20
5.47346
 30
0.0
 10
0.32895
 20
5.71042
 30
0.0
 10
0.74983
 20
6.14335
 30
0.0
 10
1.05715
 20
6.13555
 30
0.0
 10
1.2509
 20
5.68701
 30
0.0
 10
1.2509
 20
5.68701
 30
0.0
 10
1.64463
 20
4.42393
 30
0.0
 10
1.64463
 20
4.42393
 30
0.0
 10
1.64463
 20
4.42393
 30
0.0
 10
1.68383
 20
4.28525
 30
0.0
 10
1.68383
 20
4.28525
 30
0.0
 10
1.65131
 20
4.26971
 30
0.0
 10
1.60659
 20
4.24738
 30
0.0
 10
1.54971
 20
4.21827
 30
0.0
 10
1.54971
 20
4.21827
 30
0.0
 10
1.52081
 20
4.29432
 30
0.0
 10
1.52081
 20
4.29432
 30
0.0
 10
1.41543
 20
4.53473
 30
0.0
 10
1.2942
 20
4.89337
 30
0.0
 10
1.15712
 20
5.37023
 30
0.0
 10
0.92825
 20
5.95648
 30
0.0
 10
0.66446
 20
5.95778
 30
0.0
 10
0.36573
 20
5.37411
 30
0.0
 10
0.18403
 20
4.96593
 30
0.0
 10
0.019
 20
4.45135
 30
0.0
 10
-0.12938
 20
3.83038
 30
0.0
 10
-0.20169
 20
3.55693
 30
0.0
 10
-0.24854
 20
3.3488
 30
0.0
 10
-0.2699
 20
3.206
 30
0.0
 10
-0.35643
 20
2.62734
 30
0.0
 10
-0.56206
 20
2.30717
 30
0.0
 10
-0.43168
 20
1.66281
 30
0.0
 10
-0.39157
 20
1.52616
 30
0.0
 10
-0.39729
 20
1.42213
 30
0.0
 10
-0.44886
 20
1.35076
 30
0.0
 10
-0.4598
 20
1.33563
 30
0.0
 10
-0.53375
 20
1.25224
 30
0.0
 10
-0.46347
 20
1.27018
 30
0.0
 10
0.11184
 20
1.59788
 30
0.0
 10
0.08001
 20
1.58424
 30
0.0
 10
-0.34263
 20
1.10645
 30
0.0
 10
-0.10519
 20
1.2977
 30
0.0
 10
-0.07208
 20
1.28795
 30
0.0
 10
-0.24329
 20
0.97777
 30
0.0
 10
0.03794
 20
1.09722
 30
0.0
 10
0.08732
 20
1.04913
 30
0.0
 10
-0.09515
 20
0.83351
 30
0.0
 10
0.22359
 20
0.91551
 30
0.0
 10
0.29473
 20
0.88172
 30
0.0
 10
0.11826
 20
0.73215
 30
0.0
 10
0.47757
 20
0.75923
 30
0.0
 10
0.57892
 20
0.71115
 30
0.0
 10
0.42232
 20
0.5879
 30
0.0
 10
0.47548
 20
0.53967
 30
0.0
 10
0.52672
 20
0.49186
 30
0.0
 10
0.57605
 20
0.4445
 30
0.0
 10
0.79731
 20
0.23199
 30
0.0
 10
1.02673
 20
0.06379
 30
0.0
 10
1.2501
 20
-0.16893
 30
0.0
 10
1.42325
 20
-0.34942
 30
0.0
 10
2.00053
 20
-0.76491
 30
0.0
 10
1.886
 20
-1.06116
 30
0.0
 10
2.03028
 20
-1.0263
 30
0.0
 10
2.17026
 20
-1.03118
 30
0.0
 10
2.30595
 20
-1.07579
 30
0.0
 10
2.24742
 20
-0.93606
 30
0.0
 10
2.04858
 20
-1.00782
 30
0.0
 10
2.13143
 20
-0.90723
 30
0.0
 10
2.13774
 20
-0.84209
 30
0.0
 10
2.12961
 20
-0.81351
 30
0.0
 10
2.10707
 20
-0.82148
 30
0.0
 10
2.09803
 20
-0.82467
 30
0.0
 10
2.08665
 20
-0.83377
 30
0.0
 10
2.07296
 20
-0.84875
 30
0.0
 10
2.02446
 20
-0.89844
 30
0.0
 10
2.00627
 20
-0.83216
 30
0.0
 10
2.01839
 20
-0.64993
 30
0.0
 10
2.01839
 20
-0.64993
 30
0.0
 10
1.95139
 20
-0.75236
 30
0.0
 10
1.95139
 20
-0.75236
 30
0.0
 10
1.87355
 20
-0.87139
 30
0.0
 10
1.9127
 20
-0.63157
 30
0.0
 10
1.90917
 20
-0.53497
 30
0.0
 10
1.72501
 20
-0.5667
 30
0.0
 10
1.71816
 20
-0.54641
 30
0.0
 10
1.83601
 20
-0.43317
 30
0.0
 10
1.83601
 20
-0.43317
 30
0.0
 10
1.95974
 20
-0.32695
 30
0.0
 10
1.95974
 20
-0.32695
 30
0.0
 10
1.71306
 20
-0.41569
 30
0.0
 10
1.65204
 20
-0.3986
 30
0.0
 10
1.48013
 20
-0.25578
 30
0.0
 10
1.42758
 20
-0.2121
 30
0.0
 10
1.21955
 20
-0.19963
 30
0.0
 10
1.44416
 20
-0.0677
 30
0.0
 10
1.33996
 20
-0.07384
 30
0.0
 10
1.29185
 20
-0.08066
 30
0.0
 10
1.27514
 20
0.00914
 30
0.0
 10
1.27242
 20
0.02376
 30
0.0
 10
1.2587
 20
0.02966
 30
0.0
 10
1.23403
 20
0.02688
 30
0.0
 10
1.11585
 20
0.0135
 30
0.0
 10
1.16152
 20
0.10521
 30
0.0
 10
1.22094
 20
0.16035
 30
0.0
 10
1.17587
 20
0.15216
 30
0.0
 10
1.13681
 20
0.14745
 30
0.0
 10
1.1038
 20
0.14623
 30
0.0
 10
1.05447
 20
0.14442
 30
0.0
 10
0.95538
 20
0.1348
 30
0.0
 10
1.0356
 20
0.20419
 30
0.0
 10
1.0356
 20
0.20419
 30
0.0
 10
1.212
 20
0.35037
 30
0.0
 10
1.212
 20
0.35037
 30
0.0
 10
1.17584
 20
0.35136
 30
0.0
 10
1.14821
 20
0.35558
 30
0.0
 10
1.12912
 20
0.36303
 30
0.0
 10
1.21967
 20
0.42074
 30
0.0
 10
1.27424
 20
0.47791
 30
0.0
 10
1.29285
 20
0.53456
 30
0.0
 10
1.08725
 20
0.45587
 30
0.0
 10
0.96387
 20
0.46808
 30
0.0
 10
0.92273
 20
0.57117
 30
0.0
 10
0.88723
 20
0.66016
 30
0.0
 10
0.92891
 20
0.61521
 30
0.0
 10
0.86833
 20
0.61412
 30
0.0
 10
0.78119
 20
0.61249
 30
0.0
 10
0.96803
 20
0.87324
 30
0.0
 10
0.84817
 20
0.75441
 30
0.0
 10
0.75322
 20
0.6602
 30
0.0
 10
0.73443
 20
0.68956
 30
0.0
 10
0.79183
 20
0.84248
 30
0.0
 10
0.87324
 20
1.0305
 30
0.0
 10
0.93541
 20
1.14304
 30
0.0
 10
0.97836
 20
1.18013
 30
0.0
 10
0.84565
 20
1.1077
 30
0.0
 10
0.7443
 20
1.04338
 30
0.0
 10
0.67429
 20
0.98716
 30
0.0
 10
0.62015
 20
0.94465
 30
0.0
 10
0.60196
 20
0.95569
 30
0.0
 10
0.61971
 20
1.0203
 30
0.0
 10
0.72248
 20
1.24316
 30
0.0
 10
0.80303
 20
1.42378
 30
0.0
 10
0.86138
 20
1.56215
 30
0.0
 10
0.71111
 20
1.44162
 30
0.0
 10
0.60391
 20
1.33181
 30
0.0
 10
0.53977
 20
1.23275
 30
0.0
 10
0.49329
 20
1.20151
 30
0.0
 10
0.47151
 20
1.21288
 30
0.0
 10
0.47446
 20
1.26684
 30
0.0
 10
0.51109
 20
1.32978
 30
0.0
 10
0.53316
 20
1.41327
 30
0.0
 10
0.54069
 20
1.51732
 30
0.0
 10
0.54069
 20
1.51732
 30
0.0
 10
0.27558
 20
1.21811
 30
0.0
 10
0.27558
 20
1.21811
 30
0.0
 10
0.33185
 20
1.50358
 30
0.0
 10
0.55113
 20
1.75924
 30
0.0
 10
0.9334
 20
1.98508
 30
0.0
 10
0.85631
 20
1.88296
 30
0.0
 10
0.79913
 20
1.77835
 30
0.0
 10
0.76187
 20
1.67126
 30
0.0
 10
0.76187
 20
1.67126
 30
0.0
 10
1.3132
 20
2.03442
 30
0.0
 10
1.3132
 20
2.03442
 30
0.0
 10
1.43215
 20
2.11279
 30
0.0
 10
1.43425
 20
2.06699
 30
0.0
 10
1.35131
 20
1.96765
 30
0.0
 10
1.25909
 20
1.85725
 30
0.0
 10
1.12693
 20
1.64149
 30
0.0
 10
0.95482
 20
1.32038
 30
0.0
 10
0.95482
 20
1.32038
 30
0.0
 10
1.38579
 20
1.58522
 30
0.0
 10
1.38579
 20
1.58522
 30
0.0
 10
1.44213
 20
1.60982
 30
0.0
 10
1.44863
 20
1.59747
 30
0.0
 10
1.40528
 20
1.54818
 30
0.0
 10
1.26026
 20
1.39893
 30
0.0
 10
1.155
 20
1.2615
 30
0.0
 10
1.0895
 20
1.1359
 30
0.0
 10
1.27371
 20
1.27816
 30
0.0
 10
1.44589
 20
1.37497
 30
0.0
 10
1.60603
 20
1.42633
 30
0.0
 10
1.42145
 20
1.26912
 30
0.0
 10
1.30321
 20
1.15606
 30
0.0
 10
1.25129
 20
1.08716
 30
0.0
 10
1.16036
 20
0.99155
 30
0.0
 10
1.10194
 20
0.89739
 30
0.0
 10
1.07604
 20
0.80469
 30
0.0
 10
1.039
 20
0.6721
 30
0.0
 10
1.07403
 20
0.64092
 30
0.0
 10
1.10443
 20
0.65599
 30
0.0
 10
1.13193
 20
0.6696
 30
0.0
 10
1.16348
 20
0.79562
 30
0.0
 10
1.18709
 20
0.84117
 30
0.0
 10
1.26113
 20
0.98399
 30
0.0
 10
1.37055
 20
1.09554
 30
0.0
 10
1.51534
 20
1.1758
 30
0.0
 10
1.72653
 20
1.28211
 30
0.0
 10
1.8519
 20
1.45231
 30
0.0
 10
1.89142
 20
1.68638
 30
0.0
 10
1.96518
 20
2.12344
 30
0.0
 10
1.93904
 20
2.84172
 30
0.0
 10
1.78409
 20
3.24381
 30
0.0
 10
1.72968
 20
3.43608
 30
0.0
 10
1.69539
 20
3.52007
 30
0.0
 10
1.68123
 20
3.70856
 30
0.0
 10
1.67068
 20
3.84885
 30
0.0
 10
1.62758
 20
4.00191
 30
0.0
 10
1.5686
 20
4.16657
 30
0.0
 10
1.5686
 20
4.16657
 30
0.0
 10
1.70006
 20
4.22785
 30
0.0
 10
1.70006
 20
4.22785
 30
0.0
  0
SPLINE
  5
73
330
1F
100
AcDbEntity
  8
Plan 1
 62
   250
370
    18
100
AcDbSpline
210
0.0
220
0.0
230
1.0
 70
    11
 71
     3
 72
    92
 73
    88
 74
     0
 42
0.0000000001
 43
0.0000000001
 40
0.0
 40
0.0
 40
0.0
 40
0.0
 40
0.0344827586206897
 40
0.0344827586206897
 40
0.0344827586206897
 40
0.0689655172413793
 40
0.0689655172413793
 40
0.0689655172413793
 40
0.103448275862069
 40
0.103448275862069
 40
0.103448275862069
 40
0.1379310344827586
 40
0.1379310344827586
 40
0.1379310344827586
 40
0.1724137931034483
 40
0.1724137931034483
 40
0.1724137931034483
 40
0.2068965517241379
 40
0.2068965517241379
 40
0.2068965517241379
 40
0.2413793103448276
 40
0.2413793103448276
 40
0.2413793103448276
 40
0.2758620689655172
 40
0.2758620689655172
 40
0.2758620689655172
 40
0.3103448275862069
 40
0.3103448275862069
 40
0.3103448275862069
 40
0.3448275862068966
 40
0.3448275862068966
 40
0.3448275862068966
 40
0.3793103448275862
 40
0.3793103448275862
 40
0.3793103448275862
 40
0.4137931034482759
 40
0.4137931034482759
 40
0.4137931034482759
 40
0.4482758620689655
 40
0.4482758620689655
 40
0.4482758620689655
 40
0.4827586206896551
 40
0.4827586206896551
 40
0.4827586206896551
 40
0.5172413793103449
 40
0.5172413793103449
 40
0.5172413793103449
 40
0.5517241379310345
 40
0.5517241379310345
 40
0.5517241379310345
 40
0.5862068965517241
 40
0.5862068965517241
 40
0.5862068965517241
 40
0.6206896551724138
 40
0.6206896551724138
 40
0.6206896551724138
 40
0.6551724137931034
 40
0.6551724137931034
 40
0.6551724137931034
 40
0.6896551724137931
 40
0.6896551724137931
 40
0.6896551724137931
 40
0.7241379310344828
 40
0.7241379310344828
 40
0.7241379310344828
 40
0.7586206896551724
 40
0.7586206896551724
 40
0.7586206896551724
 40
0.7931034482758621
 40
0.7931034482758621
 40
0.7931034482758621
 40
0.8275862068965517
 40
0.8275862068965517
 40
0.8275862068965517
 40
0.8620689655172413
 40
0.8620689655172413
 40
0.8620689655172413
 40
0.896551724137931
 40
0.896551724137931
 40
0.896551724137931
 40
0.9310344827586207
 40
0.9310344827586207
 40
0.9310344827586207
 40
0.9655172413793103
 40
0.9655172413793103
 40
0.9655172413793103
 40
1.0
 40
1.0
 40
1.0
 40
1.0
 10
-3.85128
 20
2.0782
 30
0.0
 10
-3.50803
 20
1.43038
 30
0.0
 10
-3.77585
 20
1.01398
 30
0.0
 10
-4.28482
 20
0.57422
 30
0.0
 10
-4.61058
 20
0.2927
 30
0.0
 10
-4.68919
 20
-0.1041
 30
0.0
 10
-4.94081
 20
-0.40728
 30
0.0
 10
-5.01335
 20
-0.49469
 30
0.0
 10
-5.11997
 20
-0.63875
 30
0.0
 10
-5.26067
 20
-0.83947
 30
0.0
 10
-5.32788
 20
-0.94337
 30
0.0
 10
-5.46822
 20
-1.05447
 30
0.0
 10
-5.68171
 20
-1.17277
 30
0.0
 10
-5.34232
 20
-0.74676
 30
0.0
 10
-5.28841
 20
-0.35562
 30
0.0
 10
-5.54333
 20
0.04354
 30
0.0
 10
-5.3237
 20
-0.08062
 30
0.0
 10
-5.20674
 20
-0.25214
 30
0.0
 10
-5.19248
 20
-0.47102
 30
0.0
 10
-5.07909
 20
-0.28272
 30
0.0
 10
-5.05829
 20
0.01421
 30
0.0
 10
-5.13012
 20
0.41977
 30
0.0
 10
-5.01662
 20
0.23534
 30
0.0
 10
-4.95424
 20
0.03782
 30
0.0
 10
-4.943
 20
-0.17278
 30
0.0
 10
-4.83474
 20
0.21321
 30
0.0
 10
-4.77108
 20
0.64399
 30
0.0
 10
-4.75203
 20
1.11956
 30
0.0
 10
-4.74388
 20
1.18123
 30
0.0
 10
-4.75211
 20
1.24194
 30
0.0
 10
-4.75527
 20
1.29971
 30
0.0
 10
-4.77274
 20
1.61895
 30
0.0
 10
-4.95231
 20
1.87794
 30
0.0
 10
-5.31536
 20
2.07859
 30
0.0
 10
-5.04986
 20
2.08278
 30
0.0
 10
-4.8387
 20
2.00547
 30
0.0
 10
-4.68188
 20
1.84663
 30
0.0
 10
-4.70535
 20
1.95831
 30
0.0
 10
-4.82945
 20
2.10515
 30
0.0
 10
-5.05417
 20
2.28715
 30
0.0
 10
-4.85174
 20
2.245
 30
0.0
 10
-4.68346
 20
2.1628
 30
0.0
 10
-4.54934
 20
2.04055
 30
0.0
 10
-4.54299
 20
2.10963
 30
0.0
 10
-4.60816
 20
2.20822
 30
0.0
 10
-4.74483
 20
2.33629
 30
0.0
 10
-4.87417
 20
2.45745
 30
0.0
 10
-4.73128
 20
2.39631
 30
0.0
 10
-4.6726
 20
2.37015
 30
0.0
 10
-4.53404
 20
2.30834
 30
0.0
 10
-4.4176
 20
2.22899
 30
0.0
 10
-4.32331
 20
2.13206
 30
0.0
 10
-4.34616
 20
2.34197
 30
0.0
 10
-4.38282
 20
2.60517
 30
0.0
 10
-4.46326
 20
2.80275
 30
0.0
 10
-4.54664
 20
3.00747
 30
0.0
 10
-4.69882
 20
3.20495
 30
0.0
 10
-4.9198
 20
3.39518
 30
0.0
 10
-4.98904
 20
3.4385
 30
0.0
 10
-4.97507
 20
3.44956
 30
0.0
 10
-4.87791
 20
3.42834
 30
0.0
 10
-4.69854
 20
3.34108
 30
0.0
 10
-4.5498
 20
3.23896
 30
0.0
 10
-4.43168
 20
3.12198
 30
0.0
 10
-4.65486
 20
3.75835
 30
0.0
 10
-4.98199
 20
3.94839
 30
0.0
 10
-5.50468
 20
3.80321
 30
0.0
 10
-5.13738
 20
4.09393
 30
0.0
 10
-4.73782
 20
4.03549
 30
0.0
 10
-4.30603
 20
3.62788
 30
0.0
 10
-4.38984
 20
4.21364
 30
0.0
 10
-4.64909
 20
4.6782
 30
0.0
 10
-5.11886
 20
5.11902
 30
0.0
 10
-5.24248
 20
5.19694
 30
0.0
 10
-5.23274
 20
5.20539
 30
0.0
 10
-5.08962
 20
5.14436
 30
0.0
 10
-4.6419
 20
4.80799
 30
0.0
 10
-4.29829
 20
4.32097
 30
0.0
 10
-4.05878
 20
3.6833
 30
0.0
 10
-3.93446
 20
3.23765
 30
0.0
 10
-3.92095
 20
2.7397
 30
0.0
 10
-4.01892
 20
2.19124
 30
0.0
 10
-4.05492
 20
1.92072
 30
0.0
 10
-4.04971
 20
1.62315
 30
0.0
 10
-4.00332
 20
1.29853
 30
0.0
 10
-3.88299
 20
1.38449
 30
0.0
 10
-3.8323
 20
1.64438
 30
0.0
 10
-3.85128
 20
2.0782
 30
0.0
  0
SPLINE
  5
74
330
1F
100
AcDbEntity
  8
Plan 1
 62
   250
370
    18
100
AcDbSpline
210
0.0
220
0.0
230
1.0
 70
    11
 71
     3
 72
    29
 73
    25
 74
     0
 42
0.0000000001
 43
0.0000000001
 40
0.0
 40
0.0
 40
0.0
 40
0.0
 40
0.125
 40
0.125
 40
0.125
 40
0.25
 40
0.25
 40
0.25
 40
0.375
 40
0.375
 40
0.375
 40
0.5
 40
0.5
 40
0.5
 40
0.625
 40
0.625
 40
0.625
 40
0.75
 40
0.75
 40
0.75
 40
0.875
 40
0.875
 40
0.875
 40
1.0
 40
1.0
 40
1.0
 40
1.0
 10
-0.61409
 20
-9.23234
 30
0.0
 10
-0.59016
 20
-9.15459
 30
0.0
 10
-0.53099
 20
-9.16306
 30
0.0
 10
-0.46427
 20
-9.14099
 30
0.0
 10
-0.39054
 20
-9.11661
 30
0.0
 10
-0.38156
 20
-9.08007
 30
0.0
 10
-0.29651
 20
-9.09029
 30
0.0
 10
-0.25555
 20
-9.09521
 30
0.0
 10
-0.23056
 20
-9.11441
 30
0.0
 10
-0.22156
 20
-9.14788
 30
0.0
 10
-0.22156
 20
-9.14788
 30
0.0
 10
-0.11631
 20
-9.34765
 30
0.0
 10
-0.11631
 20
-9.34765
 30
0.0
 10
-0.09893
 20
-9.37816
 30
0.0
 10
-0.09567
 20
-9.4085
 30
0.0
 10
-0.10656
 20
-9.43867
 30
0.0
 10
-0.19201
 20
-9.57709
 30
0.0
 10
-0.2948
 20
-9.50354
 30
0.0
 10
-0.38931
 20
-9.44219
 30
0.0
 10
-0.43083
 20
-9.41524
 30
0.0
 10
-0.47952
 20
-9.38819
 30
0.0
 10
-0.53538
 20
-9.36105
 30
0.0
 10
-0.60235
 20
-9.32213
 30
0.0
 10
-0.62855
 20
-9.27929
 30
0.0
 10
-0.61409
 20
-9.23234
 30
0.0
  0
SPLINE
  5
75
330
1F
100
AcDbEntity
  8
Plan 1
 62
   250
370
    18
100
AcDbSpline
210
0.0
220
0.0
230
1.0
 70
    11
 71
     3
 72
    17
 73
    13
 74
     0
 42
0.0000000001
 43
0.0000000001
 40
0.0
 40
0.0
 40
0.0
 40
0.0
 40
0.25
 40
0.25
 40
0.25
 40
0.5
 40
0.5
 40
0.5
 40
0.75
 40
0.75
 40
0.75
 40
1.0
 40
1.0
 40
1.0
 40
1.0
 10
2.25087
 20
-2.57365
 30
0.0
 10
2.28902
 20
-2.62983
 30
0.0
 10
2.27896
 20
-2.7057
 30
0.0
 10
2.22748
 20
-2.75
 30
0.0
 10
2.17601
 20
-2.79429
 30
0.0
 10
2.09949
 20
-2.79293
 30
0.0
 10
2.04963
 20
-2.74682
 30
0.0
 10
1.99977
 20
-2.70071
 30
0.0
 10
1.99242
 20
-2.62454
 30
0.0
 10
2.03256
 20
-2.56975
 30
0.0
 10
2.09814
 20
-2.65952
 30
0.0
 10
2.17091
 20
-2.66082
 30
0.0
 10
2.25087
 20
-2.57365
 30
0.0
  0
SPLINE
  5
76
330
1F
100
AcDbEntity
  8
Plan 1
 62
   250
370
    18
100
AcDbSpline
210
0.0
220
0.0
230
1.0
 70
    11
 71
     3
 72
    59
 73
    55
 74
     0
 42
0.0000000001
 43
0.0000000001
 40
0.0
 40
0.0
 40
0.0
 40
0.0
 40
0.0555555555555556
 40
0.0555555555555556
 40
0.0555555555555556
 40
0.1111111111111111
 40
0.1111111111111111
 40
0.1111111111111111
 40
0.1666666666666667
 40
0.1666666666666667
 40
0.1666666666666667
 40
0.2222222222222222
 40
0.2222222222222222
 40
0.2222222222222222
 40
0.2777777777777778
 40
0.2777777777777778
 40
0.2777777777777778
 40
0.3333333333333333
 40
0.3333333333333333
 40
0.3333333333333333
 40
0.3888888888888888
 40
0.3888888888888888
 40
0.3888888888888888
 40
0.4444444444444444
 40
0.4444444444444444
 40
0.4444444444444444
 40
0.5
 40
0.5
 40
0.5
 40
0.5555555555555556
 40
0.5555555555555556
 40
0.5555555555555556
 40
0.611111111111111
 40
0.611111111111111
 40
0.611111111111111
 40
0.6666666666666666
 40
0.6666666666666666
 40
0.6666666666666666
 40
0.7222222222222222
 40
0.7222222222222222
 40
0.7222222222222222
 40
0.7777777777777777
 40
0.7777777777777777
 40
0.7777777777777777
 40
0.8333333333333333
 40
0.8333333333333333
 40
0.8333333333333333
 40
0.8888888888888888
 40
0.8888888888888888
 40
0.8888888888888888
 40
0.9444444444444444
 40
0.9444444444444444
 40
0.9444444444444444
 40
1.0
 40
1.0
 40
1.0
 40
1.0
 10
-0.80644
 20
-8.74768
 30
0.0
 10
-0.7665
 20
-8.80725
 30
0.0
 10
-0.70478
 20
-8.88132
 30
0.0
 10
-0.62126
 20
-8.96988
 30
0.0
 10
-0.52425
 20
-9.05647
 30
0.0
 10
-0.5353
 20
-9.12209
 30
0.0
 10
-0.65441
 20
-9.16676
 30
0.0
 10
-0.90819
 20
-9.27978
 30
0.0
 10
-0.87117
 20
-9.17353
 30
0.0
 10
-1.00841
 20
-9.10485
 30
0.0
 10
-1.15499
 20
-9.0315
 30
0.0
 10
-1.3249
 20
-9.15729
 30
0.0
 10
-1.22939
 20
-8.81981
 30
0.0
 10
-1.35745
 20
-8.81451
 30
0.0
 10
-1.46237
 20
-8.74135
 30
0.0
 10
-1.55611
 20
-8.66393
 30
0.0
 10
-1.6982
 20
-8.54658
 30
0.0
 10
-1.79184
 20
-8.39408
 30
0.0
 10
-1.72132
 20
-8.2532
 30
0.0
 10
-1.96449
 20
-8.29572
 30
0.0
 10
-1.98293
 20
-8.1925
 30
0.0
 10
-2.06033
 20
-8.0348
 30
0.0
 10
-2.07286
 20
-8.00928
 30
0.0
 10
-2.09045
 20
-7.98136
 30
0.0
 10
-2.11311
 20
-7.95108
 30
0.0
 10
-2.1516
 20
-7.90569
 30
0.0
 10
-2.15874
 20
-7.84462
 30
0.0
 10
-2.13454
 20
-7.76787
 30
0.0
 10
-2.29069
 20
-7.73195
 30
0.0
 10
-2.28744
 20
-7.6358
 30
0.0
 10
-2.12477
 20
-7.4794
 30
0.0
 10
-2.02683
 20
-7.39789
 30
0.0
 10
-2.00393
 20
-7.41096
 30
0.0
 10
-2.05608
 20
-7.51863
 30
0.0
 10
-2.12064
 20
-7.65376
 30
0.0
 10
-2.09266
 20
-7.67037
 30
0.0
 10
-1.97612
 20
-7.57228
 30
0.0
 10
-1.71817
 20
-7.3273
 30
0.0
 10
-1.64389
 20
-7.33999
 30
0.0
 10
-1.67207
 20
-7.74962
 30
0.0
 10
-1.49212
 20
-7.76936
 30
0.0
 10
-1.40695
 20
-7.91946
 30
0.0
 10
-1.41659
 20
-8.19991
 30
0.0
 10
-1.30216
 20
-8.19096
 30
0.0
 10
-1.21288
 20
-8.2649
 30
0.0
 10
-1.14097
 20
-8.38664
 30
0.0
 10
-1.07225
 20
-8.50297
 30
0.0
 10
-1.00065
 20
-8.62091
 30
0.0
 10
-1.09106
 20
-8.74374
 30
0.0
 10
-1.05956
 20
-8.76498
 30
0.0
 10
-1.01214
 20
-8.75329
 30
0.0
 10
-0.94877
 20
-8.70866
 30
0.0
 10
-0.89735
 20
-8.67877
 30
0.0
 10
-0.84991
 20
-8.69178
 30
0.0
 10
-0.80644
 20
-8.74768
 30
0.0
  0
SPLINE
  5
77
330
1F
100
AcDbEntity
  8
Plan 1
 62
   250
370
    18
100
AcDbSpline
210
0.0
220
0.0
230
1.0
 70
    11
 71
     3
 72
    17
 73
    13
 74
     0
 42
0.0000000001
 43
0.0000000001
 40
0.0
 40
0.0
 40
0.0
 40
0.0
 40
0.25
 40
0.25
 40
0.25
 40
0.5
 40
0.5
 40
0.5
 40
0.75
 40
0.75
 40
0.75
 40
1.0
 40
1.0
 40
1.0
 40
1.0
 10
2.06954
 20
-2.35788
 30
0.0
 10
2.11375
 20
-2.33438
 30
0.0
 10
2.15858
 20
-2.33228
 30
0.0
 10
2.1697
 20
-2.35319
 30
0.0
 10
2.18082
 20
-2.3741
 30
0.0
 10
2.154
 20
-2.4101
 30
0.0
 10
2.1098
 20
-2.43359
 30
0.0
 10
2.0656
 20
-2.45708
 30
0.0
 10
2.02076
 20
-2.45919
 30
0.0
 10
2.00965
 20
-2.43827
 30
0.0
 10
1.99853
 20
-2.41736
 30
0.0
 10
2.02535
 20
-2.38137
 30
0.0
 10
2.06954
 20
-2.35788
 30
0.0
  0
SPLINE
  5
78
330
1F
100
AcDbEntity
  8
Plan 1
 62
   250
370
    18
100
AcDbSpline
210
0.0
220
0.0
230
1.0
 70
    11
 71
     3
 72
    17
 73
    13
 74
     0
 42
0.0000000001
 43
0.0000000001
 40
0.0
 40
0.0
 40
0.0
 40
0.0
 40
0.25
 40
0.25
 40
0.25
 40
0.5
 40
0.5
 40
0.5
 40
0.75
 40
0.75
 40
0.75
 40
1.0
 40
1.0
 40
1.0
 40
1.0
 10
-1.57938
 20
-9.69192
 30
0.0
 10
-1.57938
 20
-9.71776
 30
0.0
 10
-1.59902
 20
-9.7387
 30
0.0
 10
-1.62324
 20
-9.7387
 30
0.0
 10
-1.64746
 20
-9.7387
 30
0.0
 10
-1.6671
 20
-9.71776
 30
0.0
 10
-1.6671
 20
-9.69192
 30
0.0
 10
-1.6671
 20
-9.66608
 30
0.0
 10
-1.64746
 20
-9.64513
 30
0.0
 10
-1.62324
 20
-9.64513
 30
0.0
 10
-1.59902
 20
-9.64513
 30
0.0
 10
-1.57938
 20
-9.66608
 30
0.0
 10
-1.57938
 20
-9.69192
 30
0.0
  0
SPLINE
  5
79
330
1F
100
AcDbEntity
  8
Plan 1
 62
   250
370
    18
100
AcDbSpline
210
0.0
220
0.0
230
1.0
 70
    11
 71
     3
 72
    44
 73
    40
 74
     0
 42
0.0000000001
 43
0.0000000001
 40
0.0
 40
0.0
 40
0.0
 40
0.0
 40
0.0769230769230769
 40
0.0769230769230769
 40
0.0769230769230769
 40
0.1538461538461539
 40
0.1538461538461539
 40
0.1538461538461539
 40
0.2307692307692308
 40
0.2307692307692308
 40
0.2307692307692308
 40
0.3076923076923077
 40
0.3076923076923077
 40
0.3076923076923077
 40
0.3846153846153846
 40
0.3846153846153846
 40
0.3846153846153846
 40
0.4615384615384616
 40
0.4615384615384616
 40
0.4615384615384616
 40
0.5384615384615385
 40
0.5384615384615385
 40
0.5384615384615385
 40
0.6153846153846154
 40
0.6153846153846154
 40
0.6153846153846154
 40
0.6923076923076923
 40
0.6923076923076923
 40
0.6923076923076923
 40
0.7692307692307693
 40
0.7692307692307693
 40
0.7692307692307693
 40
0.8461538461538463
 40
0.8461538461538463
 40
0.8461538461538463
 40
0.9230769230769231
 40
0.9230769230769231
 40
0.9230769230769231
 40
1.0
 40
1.0
 40
1.0
 40
1.0
 10
-7.03834
 20
0.57511
 30
0.0
 10
-6.91477
 20
0.37739
 30
0.0
 10
-6.83745
 20
0.14413
 30
0.0
 10
-6.80639
 20
-0.12467
 30
0.0
 10
-6.78915
 20
-0.22133
 30
0.0
 10
-6.80929
 20
-0.22882
 30
0.0
 10
-6.8668
 20
-0.14713
 30
0.0
 10
-6.93905
 20
-0.08071
 30
0.0
 10
-6.99556
 20
0.06255
 30
0.0
 10
-7.03634
 20
0.28264
 30
0.0
 10
-7.04866
 20
0.05427
 30
0.0
 10
-7.00447
 20
-0.11011
 30
0.0
 10
-6.90379
 20
-0.21052
 30
0.0
 10
-6.77952
 20
-0.33054
 30
0.0
 10
-6.88715
 20
-0.46381
 30
0.0
 10
-6.98336
 20
-0.39021
 30
0.0
 10
-7.047
 20
-0.34151
 30
0.0
 10
-7.09152
 20
-0.26224
 30
0.0
 10
-7.1026
 20
-0.18326
 30
0.0
 10
-7.11219
 20
-0.19771
 30
0.0
 10
-7.11982
 20
-0.21284
 30
0.0
 10
-7.12549
 20
-0.22864
 30
0.0
 10
-7.15562
 20
-0.3127
 30
0.0
 10
-7.16222
 20
-0.30873
 30
0.0
 10
-7.19141
 20
-0.19145
 30
0.0
 10
-7.21412
 20
-0.1002
 30
0.0
 10
-7.22472
 20
0.0477
 30
0.0
 10
-7.22319
 20
0.25223
 30
0.0
 10
-7.22228
 20
0.37551
 30
0.0
 10
-7.28881
 20
0.45675
 30
0.0
 10
-7.20592
 20
0.54464
 30
0.0
 10
-7.16014
 20
0.59317
 30
0.0
 10
-7.19077
 20
0.60249
 30
0.0
 10
-7.20327
 20
0.67695
 30
0.0
 10
-7.22842
 20
0.82677
 30
0.0
 10
-7.20464
 20
0.9884
 30
0.0
 10
-7.13191
 20
1.16183
 30
0.0
 10
-7.14095
 20
0.84412
 30
0.0
 10
-7.10976
 20
0.64854
 30
0.0
 10
-7.03834
 20
0.57511
 30
0.0
  0
SPLINE
  5
7A
330
1F
100
AcDbEntity
  8
Plan 1
 62
   250
370
    18
100
AcDbSpline
210
0.0
220
0.0
230
1.0
 70
    11
 71
     3
 72
    35
 73
    31
 74
     0
 42
0.0000000001
 43
0.0000000001
 40
0.0
 40
0.0
 40
0.0
 40
0.0
 40
0.1
 40
0.1
 40
0.1
 40
0.2
 40
0.2
 40
0.2
 40
0.3
 40
0.3
 40
0.3
 40
0.4
 40
0.4
 40
0.4
 40
0.5
 40
0.5
 40
0.5
 40
0.6000000000000001
 40
0.6000000000000001
 40
0.6000000000000001
 40
0.7000000000000001
 40
0.7000000000000001
 40
0.7000000000000001
 40
0.8
 40
0.8
 40
0.8
 40
0.9
 40
0.9
 40
0.9
 40
1.0
 40
1.0
 40
1.0
 40
1.0
 10
-5.96646
 20
-4.25634
 30
0.0
 10
-5.85775
 20
-4.21925
 30
0.0
 10
-5.76887
 20
-4.16338
 30
0.0
 10
-5.69981
 20
-4.08873
 30
0.0
 10
-5.54952
 20
-3.98296
 30
0.0
 10
-5.37421
 20
-3.95697
 30
0.0
 10
-5.1739
 20
-4.01077
 30
0.0
 10
-5.34778
 20
-4.00835
 30
0.0
 10
-5.47448
 20
-4.04279
 30
0.0
 10
-5.55399
 20
-4.11407
 30
0.0
 10
-5.30318
 20
-4.07171
 30
0.0
 10
-5.1349
 20
-4.07561
 30
0.0
 10
-5.04915
 20
-4.12577
 30
0.0
 10
-5.26351
 20
-4.16078
 30
0.0
 10
-5.3993
 20
-4.18937
 30
0.0
 10
-5.45651
 20
-4.21155
 30
0.0
 10
-5.31496
 20
-4.28172
 30
0.0
 10
-5.1233
 20
-4.27977
 30
0.0
 10
-4.8815
 20
-4.20569
 30
0.0
 10
-5.15125
 20
-4.35019
 30
0.0
 10
-5.40475
 20
-4.41031
 30
0.0
 10
-5.64199
 20
-4.38606
 30
0.0
 10
-5.93777
 20
-4.3559
 30
0.0
 10
-5.9663
 20
-4.32018
 30
0.0
 10
-6.29788
 20
-4.41253
 30
0.0
 10
-6.3659
 20
-4.43196
 30
0.0
 10
-6.36908
 20
-4.42244
 30
0.0
 10
-6.3074
 20
-4.38395
 30
0.0
 10
-6.2124
 20
-4.3168
 30
0.0
 10
-6.09875
 20
-4.27425
 30
0.0
 10
-5.96646
 20
-4.25634
 30
0.0
  0
SPLINE
  5
7B
330
1F
100
AcDbEntity
  8
Plan 1
 62
   250
370
    18
100
AcDbSpline
210
0.0
220
0.0
230
1.0
 70
    11
 71
     3
 72
    17
 73
    13
 74
     0
 42
0.0000000001
 43
0.0000000001
 40
0.0
 40
0.0
 40
0.0
 40
0.0
 40
0.25
 40
0.25
 40
0.25
 40
0.5
 40
0.5
 40
0.5
 40
0.75
 40
0.75
 40
0.75
 40
1.0
 40
1.0
 40
1.0
 40
1.0
 10
-4.98158
 20
-3.92814
 30
0.0
 10
-4.8581
 20
-3.87227
 30
0.0
 10
-4.74829
 20
-3.84678
 30
0.0
 10
-4.65214
 20
-3.85165
 30
0.0
 10
-4.5735
 20
-3.85563
 30
0.0
 10
-4.58112
 20
-3.85754
 30
0.0
 10
-4.64146
 20
-3.89367
 30
0.0
 10
-4.77566
 20
-3.97408
 30
0.0
 10
-4.89256
 20
-4.00261
 30
0.0
 10
-4.99212
 20
-3.97926
 30
0.0
 10
-5.07507
 20
-3.95983
 30
0.0
 10
-5.03831
 20
-3.95382
 30
0.0
 10
-4.98158
 20
-3.92814
 30
0.0
  0
SPLINE
  5
7C
330
1F
100
AcDbEntity
  8
Plan 1
 62
   250
370
    18
100
AcDbSpline
210
0.0
220
0.0
230
1.0
 70
    11
 71
     3
 72
    32
 73
    28
 74
     0
 42
0.0000000001
 43
0.0000000001
 40
0.0
 40
0.0
 40
0.0
 40
0.0
 40
0.1111111111111111
 40
0.1111111111111111
 40
0.1111111111111111
 40
0.2222222222222222
 40
0.2222222222222222
 40
0.2222222222222222
 40
0.3333333333333333
 40
0.3333333333333333
 40
0.3333333333333333
 40
0.4444444444444444
 40
0.4444444444444444
 40
0.4444444444444444
 40
0.5555555555555556
 40
0.5555555555555556
 40
0.5555555555555556
 40
0.6666666666666666
 40
0.6666666666666666
 40
0.6666666666666666
 40
0.7777777777777777
 40
0.7777777777777777
 40
0.7777777777777777
 40
0.8888888888888888
 40
0.8888888888888888
 40
0.8888888888888888
 40
1.0
 40
1.0
 40
1.0
 40
1.0
 10
-1.80145
 20
-1.71667
 30
0.0
 10
-1.74882
 20
-1.77508
 30
0.0
 10
-1.7157
 20
-1.83225
 30
0.0
 10
-1.70207
 20
-1.88819
 30
0.0
 10
-1.66383
 20
-2.00862
 30
0.0
 10
-1.77307
 20
-1.95531
 30
0.0
 10
-1.84925
 20
-1.95483
 30
0.0
 10
-2.04912
 20
-1.95358
 30
0.0
 10
-2.24563
 20
-2.03488
 30
0.0
 10
-2.44276
 20
-2.20202
 30
0.0
 10
-2.75914
 20
-2.41863
 30
0.0
 10
-3.03265
 20
-2.5479
 30
0.0
 10
-3.26329
 20
-2.58984
 30
0.0
 10
-3.06715
 20
-2.37374
 30
0.0
 10
-2.91382
 20
-2.13853
 30
0.0
 10
-2.80329
 20
-1.88423
 30
0.0
 10
-2.80329
 20
-1.88423
 30
0.0
 10
-3.02161
 20
-2.02457
 30
0.0
 10
-3.02161
 20
-2.02457
 30
0.0
 10
-2.9392
 20
-1.83409
 30
0.0
 10
-2.73583
 20
-1.69246
 30
0.0
 10
-2.41152
 20
-1.59969
 30
0.0
 10
-2.51369
 20
-1.58101
 30
0.0
 10
-2.59036
 20
-1.58297
 30
0.0
 10
-2.64155
 20
-1.60556
 30
0.0
 10
-2.34006
 20
-1.46222
 30
0.0
 10
-2.06003
 20
-1.49927
 30
0.0
 10
-1.80145
 20
-1.71667
 30
0.0
  0
SPLINE
  5
7D
330
1F
100
AcDbEntity
  8
Plan 1
 62
   250
370
    18
100
AcDbSpline
210
0.0
220
0.0
230
1.0
 70
    11
 71
     3
 72
    35
 73
    31
 74
     0
 42
0.0000000001
 43
0.0000000001
 40
0.0
 40
0.0
 40
0.0
 40
0.0
 40
0.1
 40
0.1
 40
0.1
 40
0.2
 40
0.2
 40
0.2
 40
0.3
 40
0.3
 40
0.3
 40
0.4
 40
0.4
 40
0.4
 40
0.5
 40
0.5
 40
0.5
 40
0.6000000000000001
 40
0.6000000000000001
 40
0.6000000000000001
 40
0.7000000000000001
 40
0.7000000000000001
 40
0.7000000000000001
 40
0.8
 40
0.8
 40
0.8
 40
0.9
 40
0.9
 40
0.9
 40
1.0
 40
1.0
 40
1.0
 40
1.0
 10
-3.47269
 20
-3.57392
 30
0.0
 10
-3.33748
 20
-3.6023
 30
0.0
 10
-3.13435
 20
-3.62808
 30
0.0
 10
-2.86332
 20
-3.65125
 30
0.0
 10
-2.58378
 20
-3.67511
 30
0.0
 10
-2.74543
 20
-3.71538
 30
0.0
 10
-2.87846
 20
-3.75523
 30
0.0
 10
-3.11117
 20
-3.82495
 30
0.0
 10
-3.33755
 20
-3.86884
 30
0.0
 10
-3.55759
 20
-3.88689
 30
0.0
 10
-3.81425
 20
-3.88052
 30
0.0
 10
-4.03615
 20
-3.90422
 30
0.0
 10
-4.22328
 20
-3.95798
 30
0.0
 10
-4.56427
 20
-4.06642
 30
0.0
 10
-4.77868
 20
-4.09111
 30
0.0
 10
-4.86651
 20
-4.03204
 30
0.0
 10
-4.62546
 20
-3.99996
 30
0.0
 10
-4.42275
 20
-3.93888
 30
0.0
 10
-4.25837
 20
-3.84882
 30
0.0
 10
-4.40133
 20
-3.82015
 30
0.0
 10
-4.48835
 20
-3.79219
 30
0.0
 10
-4.51942
 20
-3.76494
 30
0.0
 10
-4.35123
 20
-3.70517
 30
0.0
 10
-4.14883
 20
-3.67917
 30
0.0
 10
-3.91225
 20
-3.68697
 30
0.0
 10
-4.04992
 20
-3.62421
 30
0.0
 10
-4.20715
 20
-3.60049
 30
0.0
 10
-4.38395
 20
-3.61583
 30
0.0
 10
-4.11049
 20
-3.47396
 30
0.0
 10
-3.80674
 20
-3.45999
 30
0.0
 10
-3.47269
 20
-3.57392
 30
0.0
  0
SPLINE
  5
7E
330
1F
100
AcDbEntity
  8
Plan 1
 62
   250
370
    18
100
AcDbSpline
210
0.0
220
0.0
230
1.0
 70
    11
 71
     3
 72
    23
 73
    19
 74
     0
 42
0.0000000001
 43
0.0000000001
 40
0.0
 40
0.0
 40
0.0
 40
0.0
 40
0.1666666666666667
 40
0.1666666666666667
 40
0.1666666666666667
 40
0.3333333333333333
 40
0.3333333333333333
 40
0.3333333333333333
 40
0.5
 40
0.5
 40
0.5
 40
0.6666666666666666
 40
0.6666666666666666
 40
0.6666666666666666
 40
0.8333333333333333
 40
0.8333333333333333
 40
0.8333333333333333
 40
1.0
 40
1.0
 40
1.0
 40
1.0
 10
-1.24031
 20
-2.00473
 30
0.0
 10
-0.91164
 20
-2.06322
 30
0.0
 10
-0.73361
 20
-2.21527
 30
0.0
 10
-0.70624
 20
-2.46084
 30
0.0
 10
-0.69432
 20
-2.58743
 30
0.0
 10
-0.68566
 20
-2.68273
 30
0.0
 10
-0.68022
 20
-2.74672
 30
0.0
 10
-0.67041
 20
-2.86254
 30
0.0
 10
-0.68315
 20
-2.82371
 30
0.0
 10
-0.7512
 20
-2.76021
 30
0.0
 10
-0.87263
 20
-2.64698
 30
0.0
 10
-0.98943
 20
-2.52314
 30
0.0
 10
-1.05839
 20
-2.37226
 30
0.0
 10
-1.10545
 20
-2.26921
 30
0.0
 10
-1.17715
 20
-2.16554
 30
0.0
 10
-1.27345
 20
-2.06125
 30
0.0
 10
-1.31962
 20
-2.02541
 30
0.0
 10
-1.30857
 20
-2.00657
 30
0.0
 10
-1.24031
 20
-2.00473
 30
0.0
  0
SPLINE
  5
7F
330
1F
100
AcDbEntity
  8
Plan 1
 62
   250
370
    18
100
AcDbSpline
210
0.0
220
0.0
230
1.0
 70
    11
 71
     3
 72
    20
 73
    16
 74
     0
 42
0.0000000001
 43
0.0000000001
 40
0.0
 40
0.0
 40
0.0
 40
0.0
 40
0.2
 40
0.2
 40
0.2
 40
0.4
 40
0.4
 40
0.4
 40
0.6000000000000001
 40
0.6000000000000001
 40
0.6000000000000001
 40
0.8
 40
0.8
 40
0.8
 40
1.0
 40
1.0
 40
1.0
 40
1.0
 10
-1.5919
 20
-2.53196
 30
0.0
 10
-1.50001
 20
-2.41606
 30
0.0
 10
-1.47013
 20
-2.57915
 30
0.0
 10
-1.55876
 20
-2.66061
 30
0.0
 10
-1.71043
 20
-2.77525
 30
0.0
 10
-1.85673
 20
-2.78462
 30
0.0
 10
-1.99763
 20
-2.68873
 30
0.0
 10
-2.08707
 20
-2.62788
 30
0.0
 10
-2.12239
 20
-2.49158
 30
0.0
 10
-1.97702
 20
-2.51923
 30
0.0
 10
-1.93528
 20
-2.52716
 30
0.0
 10
-1.89446
 20
-2.55831
 30
0.0
 10
-1.85219
 20
-2.57569
 30
0.0
 10
-1.73477
 20
-2.624
 30
0.0
 10
-1.648
 20
-2.60943
 30
0.0
 10
-1.5919
 20
-2.53196
 30
0.0
  0
SPLINE
  5
80
330
1F
100
AcDbEntity
  8
Plan 1
 62
   250
370
    18
100
AcDbSpline
210
0.0
220
0.0
230
1.0
 70
    11
 71
     3
 72
    20
 73
    16
 74
     0
 42
0.0000000001
 43
0.0000000001
 40
0.0
 40
0.0
 40
0.0
 40
0.0
 40
0.2
 40
0.2
 40
0.2
 40
0.4
 40
0.4
 40
0.4
 40
0.6000000000000001
 40
0.6000000000000001
 40
0.6000000000000001
 40
0.8
 40
0.8
 40
0.8
 40
1.0
 40
1.0
 40
1.0
 40
1.0
 10
-1.7149
 20
-2.21815
 30
0.0
 10
-1.60936
 20
-2.19729
 30
0.0
 10
-1.56583
 20
-2.22717
 30
0.0
 10
-1.58431
 20
-2.30781
 30
0.0
 10
-1.61254
 20
-2.3722
 30
0.0
 10
-1.66289
 20
-2.40723
 30
0.0
 10
-1.73531
 20
-2.41287
 30
0.0
 10
-1.86252
 20
-2.42278
 30
0.0
 10
-1.85498
 20
-2.36044
 30
0.0
 10
-2.01606
 20
-2.41307
 30
0.0
 10
-2.12142
 20
-2.43289
 30
0.0
 10
-2.1328
 20
-2.288
 30
0.0
 10
-2.04139
 20
-2.27662
 30
0.0
 10
-1.89492
 20
-2.28778
 30
0.0
 10
-1.78609
 20
-2.26828
 30
0.0
 10
-1.7149
 20
-2.21815
 30
0.0
  0
SPLINE
  5
81
330
1F
100
AcDbEntity
  8
Plan 1
 62
   250
370
    18
100
AcDbSpline
210
0.0
220
0.0
230
1.0
 70
    11
 71
     3
 72
    17
 73
    13
 74
     0
 42
0.0000000001
 43
0.0000000001
 40
0.0
 40
0.0
 40
0.0
 40
0.0
 40
0.25
 40
0.25
 40
0.25
 40
0.5
 40
0.5
 40
0.5
 40
0.75
 40
0.75
 40
0.75
 40
1.0
 40
1.0
 40
1.0
 40
1.0
 10
-1.76553
 20
-9.67242
 30
0.0
 10
-1.74131
 20
-9.67242
 30
0.0
 10
-1.72168
 20
-9.69118
 30
0.0
 10
-1.72168
 20
-9.71433
 30
0.0
 10
-1.72168
 20
-9.73747
 30
0.0
 10
-1.74131
 20
-9.75623
 30
0.0
 10
-1.76553
 20
-9.75623
 30
0.0
 10
-1.78975
 20
-9.75623
 30
0.0
 10
-1.80939
 20
-9.73747
 30
0.0
 10
-1.80939
 20
-9.71433
 30
0.0
 10
-1.80939
 20
-9.69118
 30
0.0
 10
-1.78975
 20
-9.67242
 30
0.0
 10
-1.76553
 20
-9.67242
 30
0.0
  0
ENDSEC
  0
SECTION
  2
OBJECTS
  0
DICTIONARY
  5
C
330
0
100
AcDbDictionary
281
     1
  3
ACAD_GROUP
350
D
  3
ACAD_LAYOUT
350
1A
  3
ACAD_MATERIAL
350
43
  3
ACAD_MLEADERSTYLE
350
6B
  3
ACAD_MLINESTYLE
350
17
  3
ACAD_PLOTSETTINGS
350
19
  3
ACAD_PLOTSTYLENAME
350
E
  3
ACAD_SCALELIST
350
47
  3
ACAD_TABLESTYLE
350
69
  3
ACAD_VISUALSTYLE
350
2A
  3
AcDbVariableDictionary
350
82
  3
DWGPROPS
350
89
  0
DICTIONARY
  5
8A
330
8
100
AcDbDictionary
280
     1
281
     1
  3
ACAD_XREC_ROUNDTRIP
360
8B
  0
DICTIONARY
  5
D
102
{ACAD_REACTORS
330
C
102
}
330
C
100
AcDbDictionary
281
     1
  0
DICTIONARY
  5
1A
102
{ACAD_REACTORS
330
C
102
}
330
C
100
AcDbDictionary
281
     1
  3
Layout1
350
1E
  3
Layout2
350
26
  3
Model
350
22
  0
DICTIONARY
  5
43
102
{ACAD_REACTORS
330
C
102
}
330
C
100
AcDbDictionary
281
     1
  3
ByBlock
350
45
  3
ByLayer
350
44
  3
Global
350
46
  0
DICTIONARY
  5
6B
102
{ACAD_REACTORS
330
C
102
}
330
C
100
AcDbDictionary
281
     1
  3
Standard
350
6C
  0
DICTIONARY
  5
17
102
{ACAD_REACTORS
330
C
102
}
330
C
100
AcDbDictionary
281
     1
  3
Standard
350
18
  0
DICTIONARY
  5
19
102
{ACAD_REACTORS
330
C
102
}
330
C
100
AcDbDictionary
281
     1
  0
ACDBDICTIONARYWDFLT
  5
E
102
{ACAD_REACTORS
330
C
102
}
330
C
100
AcDbDictionary
281
     1
  3
Normal
350
F
100
AcDbDictionaryWithDefault
340
F
  0
DICTIONARY
  5
47
102
{ACAD_REACTORS
330
C
102
}
330
C
100
AcDbDictionary
281
     1
  3
A0
350
48
  3
A1
350
49
  3
A2
350
4A
  3
A3
350
4B
  3
A4
350
4C
  3
A5
350
4D
  3
A6
350
4E
  3
A7
350
4F
  3
A8
350
50
  3
A9
350
51
  3
B0
350
52
  3
B1
350
53
  3
B2
350
54
  3
B3
350
55
  3
B4
350
56
  3
B5
350
57
  3
B6
350
58
  3
B7
350
59
  3
B8
350
5A
  3
B9
350
5B
  3
C0
350
5C
  3
C1
350
5D
  3
C2
350
5E
  3
C3
350
5F
  3
C4
350
60
  3
C5
350
61
  3
C6
350
62
  3
C7
350
63
  3
C8
350
64
  3
C9
350
65
  3
D0
350
66
  3
D1
350
67
  3
D2
350
68
  0
DICTIONARY
  5
69
102
{ACAD_REACTORS
330
C
102
}
330
C
100
AcDbDictionary
281
     1
  3
Standard
350
6A
  0
DICTIONARY
  5
2A
102
{ACAD_REACTORS
330
C
102
}
330
C
100
AcDbDictionary
281
     1
  3
2dWireframe
350
2F
  3
Basic
350
32
  3
Brighten
350
36
  3
ColorChange
350
3A
  3
Conceptual
350
34
  3
Dim
350
35
  3
EdgeColorOff
350
3D
  3
Facepattern
350
39
  3
Flat
350
2B
  3
FlatWithEdges
350
2C
  3
Gouraud
350
2D
  3
GouraudWithEdges
350
2E
  3
Hidden
350
31
  3
JitterOff
350
3B
  3
Linepattern
350
38
  3
OverhangOff
350
3C
  3
Realistic
350
33
  3
Shaded
350
42
  3
Shaded with edges
350
41
  3
Shades of Gray
350
3E
  3
Sketchy
350
3F
  3
Thicken
350
37
  3
Wireframe
350
30
  3
X-Ray
350
40
  0
DICTIONARY
  5
82
102
{ACAD_REACTORS
330
C
102
}
330
C
100
AcDbDictionary
281
     1
  3
CANNOSCALE
350
8C
  3
CMLEADERSTYLE
350
84
  3
CTABLESTYLE
350
83
  3
DIMASSOC
350
87
  3
HIDETEXT
350
88
  3
MSLTSCALE
350
8D
  0
XRECORD
  5
89
102
{ACAD_REACTORS
330
C
102
}
330
C
100
AcDbXrecord
280
     1
  1
DWGPROPS COOKIE
  2

  3

  4

  6

  7

  8
taoufiq
  9

300
=
301
=
302
=
303
=
304
=
305
=
306
=
307
=
308
=
309
=
 40
0.0
 41
2459243.347071204
 42
2459243.347071296
  1

 90
        0
  0
XRECORD
  5
8B
102
{ACAD_REACTORS
330
8A
102
}
330
8A
100
AcDbXrecord
280
     1
102
VTR_0.000_0.000_1.000_1.000_VISUALSTYLE
340
2F
102
VTR_0.000_0.000_1.000_1.000_GRIDDISPLAY
 70
     3
102
VTR_0.000_0.000_1.000_1.000_GRIDMAJOR
 70
     5
102
VTR_0.000_0.000_1.000_1.000_DEFAULTLIGHTING
280
     1
102
VTR_0.000_0.000_1.000_1.000_DEFAULTLIGHTINGTYPE
 70
     1
102
VTR_0.000_0.000_1.000_1.000_BRIGHTNESS
141
0.0
102
VTR_0.000_0.000_1.000_1.000_CONTRAST
142
0.0
  0
LAYOUT
  5
1E
102
{ACAD_REACTORS
330
1A
102
}
330
1A
100
AcDbPlotSettings
  1

  2
none_device
  4

  6

 40
0.0
 41
0.0
 42
0.0
 43
0.0
 44
0.0
 45
0.0
 46
0.0
 47
0.0
 48
0.0
 49
0.0
140
0.0
141
0.0
142
1.0
143
1.0
 70
   688
 72
     0
 73
     0
 74
     5
  7

 75
    16
147
1.0
148
0.0
149
0.0
100
AcDbLayout
  1
Layout1
 70
     1
 71
     1
 10
0.0
 20
0.0
 11
12.0
 21
9.0
 12
0.0
 22
0.0
 32
0.0
 14
1.000000000000000E+20
 24
1.000000000000000E+20
 34
1.000000000000000E+20
 15
-1.000000000000000E+20
 25
-1.000000000000000E+20
 35
-1.000000000000000E+20
146
0.0
 13
0.0
 23
0.0
 33
0.0
 16
1.0
 26
0.0
 36
0.0
 17
0.0
 27
1.0
 37
0.0
 76
     0
330
1B
  0
LAYOUT
  5
26
102
{ACAD_REACTORS
330
1A
102
}
330
1A
100
AcDbPlotSettings
  1

  2
none_device
  4

  6

 40
0.0
 41
0.0
 42
0.0
 43
0.0
 44
0.0
 45
0.0
 46
0.0
 47
0.0
 48
0.0
 49
0.0
140
0.0
141
0.0
142
1.0
143
1.0
 70
   688
 72
     0
 73
     0
 74
     5
  7

 75
    16
147
1.0
148
0.0
149
0.0
100
AcDbLayout
  1
Layout2
 70
     1
 71
     2
 10
0.0
 20
0.0
 11
0.0
 21
0.0
 12
0.0
 22
0.0
 32
0.0
 14
0.0
 24
0.0
 34
0.0
 15
0.0
 25
0.0
 35
0.0
146
0.0
 13
0.0
 23
0.0
 33
0.0
 16
1.0
 26
0.0
 36
0.0
 17
0.0
 27
1.0
 37
0.0
 76
     0
330
23
  0
LAYOUT
  5
22
102
{ACAD_REACTORS
330
1A
102
}
330
1A
100
AcDbPlotSettings
  1

  2
none_device
  4
Letter_(8.50_x_11.00_Inches)
  6

 40
6.35
 41
6.35
 42
6.35000508
 43
6.35000508
 44
215.9
 45
279.4
 46
0.0
 47
0.0
 48
0.0
 49
0.0
140
0.0
141
0.0
142
1.0
143
1.0
 70
  1712
 72
     0
 73
     0
 74
     0
  7

 75
     0
147
1.0
148
0.0
149
0.0
100
AcDbLayout
  1
Model
 70
     1
 71
     0
 10
0.0
 20
0.0
 11
12.0
 21
9.0
 12
0.0
 22
0.0
 32
0.0
 14
-13.35074
 24
-16.58796
 34
0.0
 15
8.99686
 25
7.0071
 35
0.0
146
0.0
 13
0.0
 23
0.0
 33
0.0
 16
1.0
 26
0.0
 36
0.0
 17
0.0
 27
1.0
 37
0.0
 76
     0
330
1F
331
29
  0
MATERIAL
  5
45
102
{ACAD_REACTORS
330
43
102
}
102
{ACAD_XDICTIONARY
360
C0
102
}
330
43
100
AcDbMaterial
  1
ByBlock
  0
MATERIAL
  5
44
102
{ACAD_REACTORS
330
43
102
}
102
{ACAD_XDICTIONARY
360
BE
102
}
330
43
100
AcDbMaterial
  1
ByLayer
  0
MATERIAL
  5
46
102
{ACAD_REACTORS
330
43
102
}
102
{ACAD_XDICTIONARY
360
C2
102
}
330
43
100
AcDbMaterial
  1
Global
  0
MLEADERSTYLE
  5
6C
102
{ACAD_REACTORS
330
6B
102
}
102
{ACAD_XDICTIONARY
360
C5
102
}
330
6B
100
AcDbMLeaderStyle
170
     2
171
     1
172
     0
 90
        2
 40
0.0
 41
0.0
173
     1
 91
-1056964608
340
14
 92
       -2
290
     1
 42
0.09
291
     1
 43
0.36
  3
Standard
341
0
 44
0.18
300

342
11
174
     1
178
     6
175
     1
176
     0
 93
-1056964608
 45
0.18
292
     0
297
     0
 46
0.18
343
0
 94
-1056964608
 47
1.0
 49
1.0
140
1.0
293
     1
141
0.0
294
     1
177
     0
142
1.0
295
     0
296
     0
143
0.125
1001
ACAD_MLEADERVER
1070
     2
  0
MLINESTYLE
  5
18
102
{ACAD_REACTORS
330
17
102
}
330
17
100
AcDbMlineStyle
  2
Standard
 70
     0
  3

 62
   256
 51
90.0
 52
90.0
 71
     2
 49
0.5
 62
   256
  6
BYLAYER
 49
-0.5
 62
   256
  6
BYLAYER
  0
ACDBPLACEHOLDER
  5
F
102
{ACAD_REACTORS
330
E
102
}
330
E
  0
SCALE
  5
48
102
{ACAD_REACTORS
330
47
102
}
330
47
100
AcDbScale
 70
     0
300
1:1
140
1.0
141
1.0
290
     1
  0
SCALE
  5
49
102
{ACAD_REACTORS
330
47
102
}
330
47
100
AcDbScale
 70
     0
300
1:2
140
1.0
141
2.0
290
     0
  0
SCALE
  5
4A
102
{ACAD_REACTORS
330
47
102
}
330
47
100
AcDbScale
 70
     0
300
1:4
140
1.0
141
4.0
290
     0
  0
SCALE
  5
4B
102
{ACAD_REACTORS
330
47
102
}
330
47
100
AcDbScale
 70
     0
300
1:5
140
1.0
141
5.0
290
     0
  0
SCALE
  5
4C
102
{ACAD_REACTORS
330
47
102
}
330
47
100
AcDbScale
 70
     0
300
1:8
140
1.0
141
8.0
290
     0
  0
SCALE
  5
4D
102
{ACAD_REACTORS
330
47
102
}
330
47
100
AcDbScale
 70
     0
300
1:10
140
1.0
141
10.0
290
     0
  0
SCALE
  5
4E
102
{ACAD_REACTORS
330
47
102
}
330
47
100
AcDbScale
 70
     0
300
1:16
140
1.0
141
16.0
290
     0
  0
SCALE
  5
4F
102
{ACAD_REACTORS
330
47
102
}
330
47
100
AcDbScale
 70
     0
300
1:20
140
1.0
141
20.0
290
     0
  0
SCALE
  5
50
102
{ACAD_REACTORS
330
47
102
}
330
47
100
AcDbScale
 70
     0
300
1:30
140
1.0
141
30.0
290
     0
  0
SCALE
  5
51
102
{ACAD_REACTORS
330
47
102
}
330
47
100
AcDbScale
 70
     0
300
1:40
140
1.0
141
40.0
290
     0
  0
SCALE
  5
52
102
{ACAD_REACTORS
330
47
102
}
330
47
100
AcDbScale
 70
     0
300
1:50
140
1.0
141
50.0
290
     0
  0
SCALE
  5
53
102
{ACAD_REACTORS
330
47
102
}
330
47
100
AcDbScale
 70
     0
300
1:100
140
1.0
141
100.0
290
     0
  0
SCALE
  5
54
102
{ACAD_REACTORS
330
47
102
}
330
47
100
AcDbScale
 70
     0
300
2:1
140
2.0
141
1.0
290
     0
  0
SCALE
  5
55
102
{ACAD_REACTORS
330
47
102
}
330
47
100
AcDbScale
 70
     0
300
4:1
140
4.0
141
1.0
290
     0
  0
SCALE
  5
56
102
{ACAD_REACTORS
330
47
102
}
330
47
100
AcDbScale
 70
     0
300
8:1
140
8.0
141
1.0
290
     0
  0
SCALE
  5
57
102
{ACAD_REACTORS
330
47
102
}
330
47
100
AcDbScale
 70
     0
300
10:1
140
10.0
141
1.0
290
     0
  0
SCALE
  5
58
102
{ACAD_REACTORS
330
47
102
}
330
47
100
AcDbScale
 70
     0
300
100:1
140
100.0
141
1.0
290
     0
  0
SCALE
  5
59
102
{ACAD_REACTORS
330
47
102
}
330
47
100
AcDbScale
 70
     0
300
1/128" = 1'-0"
140
0.0078125
141
12.0
290
     0
  0
SCALE
  5
5A
102
{ACAD_REACTORS
330
47
102
}
330
47
100
AcDbScale
 70
     0
300
1/64" = 1'-0"
140
0.015625
141
12.0
290
     0
  0
SCALE
  5
5B
102
{ACAD_REACTORS
330
47
102
}
330
47
100
AcDbScale
 70
     0
300
1/32" = 1'-0"
140
0.03125
141
12.0
290
     0
  0
SCALE
  5
5C
102
{ACAD_REACTORS
330
47
102
}
330
47
100
AcDbScale
 70
     0
300
1/16" = 1'-0"
140
0.0625
141
12.0
290
     0
  0
SCALE
  5
5D
102
{ACAD_REACTORS
330
47
102
}
330
47
100
AcDbScale
 70
     0
300
3/32" = 1'-0"
140
0.09375
141
12.0
290
     0
  0
SCALE
  5
5E
102
{ACAD_REACTORS
330
47
102
}
330
47
100
AcDbScale
 70
     0
300
1/8" = 1'-0"
140
0.125
141
12.0
290
     0
  0
SCALE
  5
5F
102
{ACAD_REACTORS
330
47
102
}
330
47
100
AcDbScale
 70
     0
300
3/16" = 1'-0"
140
0.1875
141
12.0
290
     0
  0
SCALE
  5
60
102
{ACAD_REACTORS
330
47
102
}
330
47
100
AcDbScale
 70
     0
300
1/4" = 1'-0"
140
0.25
141
12.0
290
     0
  0
SCALE
  5
61
102
{ACAD_REACTORS
330
47
102
}
330
47
100
AcDbScale
 70
     0
300
3/8" = 1'-0"
140
0.375
141
12.0
290
     0
  0
SCALE
  5
62
102
{ACAD_REACTORS
330
47
102
}
330
47
100
AcDbScale
 70
     0
300
1/2" = 1'-0"
140
0.5
141
12.0
290
     0
  0
SCALE
  5
63
102
{ACAD_REACTORS
330
47
102
}
330
47
100
AcDbScale
 70
     0
300
3/4" = 1'-0"
140
0.75
141
12.0
290
     0
  0
SCALE
  5
64
102
{ACAD_REACTORS
330
47
102
}
330
47
100
AcDbScale
 70
     0
300
1" = 1'-0"
140
1.0
141
12.0
290
     0
  0
SCALE
  5
65
102
{ACAD_REACTORS
330
47
102
}
330
47
100
AcDbScale
 70
     0
300
1-1/2" = 1'-0"
140
1.5
141
12.0
290
     0
  0
SCALE
  5
66
102
{ACAD_REACTORS
330
47
102
}
330
47
100
AcDbScale
 70
     0
300
3" = 1'-0"
140
3.0
141
12.0
290
     0
  0
SCALE
  5
67
102
{ACAD_REACTORS
330
47
102
}
330
47
100
AcDbScale
 70
     0
300
6" = 1'-0"
140
6.0
141
12.0
290
     0
  0
SCALE
  5
68
102
{ACAD_REACTORS
330
47
102
}
330
47
100
AcDbScale
 70
     0
300
1'-0" = 1'-0"
140
12.0
141
12.0
290
     0
  0
TABLESTYLE
  5
6A
102
{ACAD_REACTORS
330
69
102
}
330
69
100
AcDbTableStyle
  3
Standard
 70
     0
 71
     0
 40
0.06
 41
0.06
280
     0
281
     0
  7
Standard
140
0.18
170
     2
 62
     0
 63
   257
283
     0
274
    -2
284
     1
 64
     0
275
    -2
285
     1
 65
     0
276
    -2
286
     1
 66
     0
277
    -2
287
     1
 67
     0
278
    -2
288
     1
 68
     0
279
    -2
289
     1
 69
     0
  7
Standard
140
0.25
170
     5
 62
     0
 63
   257
283
     0
274
    -2
284
     1
 64
     0
275
    -2
285
     1
 65
     0
276
    -2
286
     1
 66
     0
277
    -2
287
     1
 67
     0
278
    -2
288
     1
 68
     0
279
    -2
289
     1
 69
     0
  7
Standard
140
0.18
170
     5
 62
     0
 63
   257
283
     0
274
    -2
284
     1
 64
     0
275
    -2
285
     1
 65
     0
276
    -2
286
     1
 66
     0
277
    -2
287
     1
 67
     0
278
    -2
288
     1
 68
     0
279
    -2
289
     1
 69
     0
  0
VISUALSTYLE
  5
2F
102
{ACAD_REACTORS
330
2A
102
}
102
{ACAD_XDICTIONARY
360
96
102
}
330
2A
100
AcDbVisualStyle
  2
2dWireframe
 70
     4
 71
     0
 72
     2
 73
     0
 90
        0
 40
0.6
 41
30.0
 62
     5
 63
     7
 74
     1
 91
        4
 64
     7
 65
   257
 75
     1
175
     1
 42
1.0
 92
        0
 66
   257
 43
1.0
 76
     1
 77
     6
 78
     2
 67
     7
 79
     5
170
     0
171
     0
290
     0
174
     0
 93
        1
 44
0.0
173
     0
291
     0
 45
0.0
1001
ACAD
1000
AcDbSavedByObjectVersion
1070
     0
  0
VISUALSTYLE
  5
32
102
{ACAD_REACTORS
330
2A
102
}
102
{ACAD_XDICTIONARY
360
9C
102
}
330
2A
100
AcDbVisualStyle
  2
Basic
 70
     7
 71
     1
 72
     0
 73
     1
 90
        0
 40
0.6
 41
30.0
 62
     5
 63
     7
 74
     0
 91
        4
 64
     7
 65
   257
 75
     1
175
     1
 42
1.0
 92
        8
 66
     7
 43
1.0
 76
     1
 77
     6
 78
     2
 67
     7
 79
     5
170
     0
171
     0
290
     0
174
     0
 93
        1
 44
0.0
173
     0
291
     1
 45
0.0
1001
ACAD
1000
AcDbSavedByObjectVersion
1070
     0
  0
VISUALSTYLE
  5
36
102
{ACAD_REACTORS
330
2A
102
}
102
{ACAD_XDICTIONARY
360
A4
102
}
330
2A
100
AcDbVisualStyle
  2
Brighten
 70
    12
 71
     2
 72
     2
 73
     0
 90
        0
 40
0.6
 41
30.0
 62
     5
 63
     7
 74
     1
 91
        4
 64
     7
 65
   257
 75
     1
175
     1
 42
1.0
 92
        8
 66
     7
 43
1.0
 76
     1
 77
     6
 78
     2
 67
     7
 79
     5
170
     0
171
     0
290
     0
174
     0
 93
        1
 44
50.0
173
     0
291
     1
 45
0.0
1001
ACAD
1000
AcDbSavedByObjectVersion
1070
     0
  0
VISUALSTYLE
  5
3A
102
{ACAD_REACTORS
330
2A
102
}
102
{ACAD_XDICTIONARY
360
AC
102
}
330
2A
100
AcDbVisualStyle
  2
ColorChange
 70
    16
 71
     2
 72
     2
 73
     3
 90
        0
 40
0.6
 41
30.0
 62
     5
 63
     8
 74
     1
 91
        4
 64
     7
 65
   257
 75
     1
175
     1
 42
1.0
 92
        8
 66
     8
 43
1.0
 76
     1
 77
     6
 78
     2
 67
     7
 79
     5
170
     0
171
     0
290
     0
174
     0
 93
        1
 44
0.0
173
     0
291
     1
 45
0.0
1001
ACAD
1000
AcDbSavedByObjectVersion
1070
     0
  0
VISUALSTYLE
  5
34
102
{ACAD_REACTORS
330
2A
102
}
102
{ACAD_XDICTIONARY
360
A0
102
}
330
2A
100
AcDbVisualStyle
  2
Conceptual
 70
     9
 71
     3
 72
     2
 73
     0
 90
        0
 40
0.6
 41
30.0
 62
     5
 63
     7
 74
     2
 91
        2
 64
     7
 65
   257
 75
     1
175
     1
 42
179.0
 92
        8
 66
     7
 43
1.0
 76
     1
 77
     6
 78
     2
 67
     7
 79
     3
170
     0
171
     0
290
     0
174
     0
 93
        1
 44
0.0
173
     0
291
     0
 45
0.0
1001
ACAD
1000
AcDbSavedByObjectVersion
1070
     0
  0
VISUALSTYLE
  5
35
102
{ACAD_REACTORS
330
2A
102
}
102
{ACAD_XDICTIONARY
360
A2
102
}
330
2A
100
AcDbVisualStyle
  2
Dim
 70
    11
 71
     2
 72
     2
 73
     0
 90
        0
 40
0.6
 41
30.0
 62
     5
 63
     7
 74
     1
 91
        4
 64
     7
 65
   257
 75
     1
175
     1
 42
1.0
 92
        8
 66
     7
 43
1.0
 76
     1
 77
     6
 78
     2
 67
     7
 79
     5
170
     0
171
     0
290
     0
174
     0
 93
        1
 44
-50.0
173
     0
291
     1
 45
0.0
1001
ACAD
1000
AcDbSavedByObjectVersion
1070
     0
  0
VISUALSTYLE
  5
3D
102
{ACAD_REACTORS
330
2A
102
}
102
{ACAD_XDICTIONARY
360
B2
102
}
330
2A
100
AcDbVisualStyle
  2
EdgeColorOff
 70
    22
 71
     2
 72
     2
 73
     0
 90
        0
 40
0.6
 41
30.0
 62
     5
 63
     7
 74
     1
 91
        4
 64
     7
 65
   257
 75
     1
175
     1
 42
1.0
 92
        8
 66
     7
 43
1.0
 76
     1
 77
     6
 78
     2
 67
     7
 79
     5
170
     0
171
     0
290
     0
174
     0
 93
        1
 44
0.0
173
     0
291
     1
 45
0.0
1001
ACAD
1000
AcDbSavedByObjectVersion
1070
     0
  0
VISUALSTYLE
  5
39
102
{ACAD_REACTORS
330
2A
102
}
102
{ACAD_XDICTIONARY
360
AA
102
}
330
2A
100
AcDbVisualStyle
  2
Facepattern
 70
    15
 71
     2
 72
     2
 73
     0
 90
        0
 40
0.6
 41
30.0
 62
     5
 63
     7
 74
     1
 91
        4
 64
     7
 65
   257
 75
     1
175
     1
 42
1.0
 92
        8
 66
     7
 43
1.0
 76
     1
 77
     6
 78
     2
 67
     7
 79
     5
170
     0
171
     0
290
     0
174
     0
 93
        1
 44
0.0
173
     0
291
     1
 45
0.0
1001
ACAD
1000
AcDbSavedByObjectVersion
1070
     0
  0
VISUALSTYLE
  5
2B
102
{ACAD_REACTORS
330
2A
102
}
102
{ACAD_XDICTIONARY
360
8E
102
}
330
2A
100
AcDbVisualStyle
  2
Flat
 70
     0
 71
     2
 72
     1
 73
     1
 90
        2
 40
0.6
 41
30.0
 62
     5
 63
     7
 74
     0
 91
        0
 64
     7
 65
   257
 75
     1
175
     1
 42
1.0
 92
        8
 66
     7
 43
1.0
 76
     1
 77
     6
 78
     2
 67
     7
 79
     5
170
     0
171
     0
290
     0
174
     0
 93
       13
 44
0.0
173
     0
291
     1
 45
0.0
1001
ACAD
1000
AcDbSavedByObjectVersion
1070
     0
  0
VISUALSTYLE
  5
2C
102
{ACAD_REACTORS
330
2A
102
}
102
{ACAD_XDICTIONARY
360
90
102
}
330
2A
100
AcDbVisualStyle
  2
FlatWithEdges
 70
     1
 71
     2
 72
     1
 73
     1
 90
        2
 40
0.6
 41
30.0
 62
     5
 63
     7
 74
     1
 91
        0
 64
     7
 65
   257
 75
     1
175
     1
 42
1.0
 92
        0
 66
   257
 43
1.0
 76
     1
 77
     6
 78
     2
 67
     7
 79
     5
170
     0
171
     0
290
     0
174
     0
 93
       13
 44
0.0
173
     0
291
     1
 45
0.0
1001
ACAD
1000
AcDbSavedByObjectVersion
1070
     0
  0
VISUALSTYLE
  5
2D
102
{ACAD_REACTORS
330
2A
102
}
102
{ACAD_XDICTIONARY
360
92
102
}
330
2A
100
AcDbVisualStyle
  2
Gouraud
 70
     2
 71
     2
 72
     2
 73
     1
 90
        2
 40
0.6
 41
30.0
 62
     5
 63
     7
 74
     0
 91
        0
 64
     7
 65
   257
 75
     1
175
     1
 42
1.0
 92
        0
 66
     7
 43
1.0
 76
     1
 77
     6
 78
     2
 67
     7
 79
     5
170
     0
171
     0
290
     0
174
     0
 93
       13
 44
0.0
173
     0
291
     1
 45
0.0
1001
ACAD
1000
AcDbSavedByObjectVersion
1070
     0
  0
VISUALSTYLE
  5
2E
102
{ACAD_REACTORS
330
2A
102
}
102
{ACAD_XDICTIONARY
360
94
102
}
330
2A
100
AcDbVisualStyle
  2
GouraudWithEdges
 70
     3
 71
     2
 72
     2
 73
     1
 90
        2
 40
0.6
 41
30.0
 62
     5
 63
     7
 74
     1
 91
        0
 64
     7
 65
   257
 75
     1
175
     1
 42
1.0
 92
        0
 66
   257
 43
1.0
 76
     1
 77
     6
 78
     2
 67
     7
 79
     5
170
     0
171
     0
290
     0
174
     0
 93
       13
 44
0.0
173
     0
291
     1
 45
0.0
1001
ACAD
1000
AcDbSavedByObjectVersion
1070
     0
  0
VISUALSTYLE
  5
31
102
{ACAD_REACTORS
330
2A
102
}
102
{ACAD_XDICTIONARY
360
9A
102
}
330
2A
100
AcDbVisualStyle
  2
Hidden
 70
     6
 71
     1
 72
     2
 73
     2
 90
        0
 40
0.6
 41
30.0
 62
     5
 63
     7
 74
     2
 91
        2
 64
     7
 65
   257
 75
     2
175
     1
 42
40.0
 92
        0
 66
   257
 43
1.0
 76
     1
 77
     6
 78
     2
 67
     7
 79
     3
170
     0
171
     0
290
     0
174
     0
 93
        1
 44
0.0
173
     0
291
     0
 45
0.0
1001
ACAD
1000
AcDbSavedByObjectVersion
1070
     0
  0
VISUALSTYLE
  5
3B
102
{ACAD_REACTORS
330
2A
102
}
102
{ACAD_XDICTIONARY
360
AE
102
}
330
2A
100
AcDbVisualStyle
  2
JitterOff
 70
    20
 71
     2
 72
     2
 73
     0
 90
        0
 40
0.6
 41
30.0
 62
     5
 63
     7
 74
     1
 91
        4
 64
     7
 65
   257
 75
     1
175
     1
 42
1.0
 92
       10
 66
     7
 43
1.0
 76
     1
 77
     6
 78
     2
 67
     7
 79
     5
170
     0
171
     0
290
     0
174
     0
 93
        1
 44
0.0
173
     0
291
     1
 45
0.0
1001
ACAD
1000
AcDbSavedByObjectVersion
1070
     0
  0
VISUALSTYLE
  5
38
102
{ACAD_REACTORS
330
2A
102
}
102
{ACAD_XDICTIONARY
360
A8
102
}
330
2A
100
AcDbVisualStyle
  2
Linepattern
 70
    14
 71
     2
 72
     2
 73
     0
 90
        0
 40
0.6
 41
30.0
 62
     5
 63
     7
 74
     1
 91
        4
 64
     7
 65
   257
 75
     7
175
     7
 42
1.0
 92
        8
 66
     7
 43
1.0
 76
     1
 77
     6
 78
     2
 67
     7
 79
     5
170
     0
171
     0
290
     0
174
     0
 93
        1
 44
0.0
173
     0
291
     1
 45
0.0
1001
ACAD
1000
AcDbSavedByObjectVersion
1070
     0
  0
VISUALSTYLE
  5
3C
102
{ACAD_REACTORS
330
2A
102
}
102
{ACAD_XDICTIONARY
360
B0
102
}
330
2A
100
AcDbVisualStyle
  2
OverhangOff
 70
    21
 71
     2
 72
     2
 73
     0
 90
        0
 40
0.6
 41
30.0
 62
     5
 63
     7
 74
     1
 91
        4
 64
     7
 65
   257
 75
     1
175
     1
 42
1.0
 92
        9
 66
     7
 43
1.0
 76
     1
 77
     6
 78
     2
 67
     7
 79
     5
170
     0
171
     0
290
     0
174
     0
 93
        1
 44
0.0
173
     0
291
     1
 45
0.0
1001
ACAD
1000
AcDbSavedByObjectVersion
1070
     0
  0
VISUALSTYLE
  5
33
102
{ACAD_REACTORS
330
2A
102
}
102
{ACAD_XDICTIONARY
360
9E
102
}
330
2A
100
AcDbVisualStyle
  2
Realistic
 70
     8
 71
     2
 72
     3
 73
     0
 90
        2
 40
0.6
 41
30.0
 62
     5
 63
     7
 74
     0
 91
        0
 64
     7
 65
   257
 75
     1
175
     1
 42
1.0
 92
        8
 66
   257
 43
1.0
 76
     1
 77
     6
 78
     2
 67
     7
 79
     3
170
     0
171
     0
290
     0
174
     0
 93
       13
 44
0.0
173
     0
291
     0
 45
0.0
1001
ACAD
1000
AcDbSavedByObjectVersion
1070
     0
  0
VISUALSTYLE
  5
42
102
{ACAD_REACTORS
330
2A
102
}
102
{ACAD_XDICTIONARY
360
BC
102
}
330
2A
100
AcDbVisualStyle
  2
Shaded
 70
    27
 71
     2
 72
     2
 73
     1
 90
        2
 40
0.6
 41
30.0
 62
     5
 63
     7
 74
     0
 91
        4
 64
     7
 65
   257
 75
     1
175
     1
 42
1.0
 92
        8
 66
   257
 43
1.0
 76
     1
 77
     6
 78
     2
 67
     8
 79
     3
170
     0
171
     0
290
     0
174
     0
 93
        5
 44
0.0
173
     0
291
     0
 45
0.0
1001
ACAD
1000
AcDbSavedByObjectVersion
1070
     0
  0
VISUALSTYLE
  5
41
102
{ACAD_REACTORS
330
2A
102
}
102
{ACAD_XDICTIONARY
360
BA
102
}
330
2A
100
AcDbVisualStyle
  2
Shaded with edges
 70
    26
 71
     2
 72
     2
 73
     1
 90
        2
 40
0.6
 41
30.0
 62
     5
 63
     7
 74
     1
 91
       10
 64
     7
 65
   257
 75
     2
175
     1
 42
1.0
 92
        8
 66
   257
 43
1.0
 76
     1
 77
     6
 78
     2
 67
     7
 79
     3
170
     0
171
     0
290
     0
174
     0
 93
        5
 44
0.0
173
     0
291
     0
 45
0.0
1001
ACAD
1000
AcDbSavedByObjectVersion
1070
     0
  0
VISUALSTYLE
  5
3E
102
{ACAD_REACTORS
330
2A
102
}
102
{ACAD_XDICTIONARY
360
B4
102
}
330
2A
100
AcDbVisualStyle
  2
Shades of Gray
 70
    23
 71
     2
 72
     2
 73
     3
 90
        0
 40
0.6
 41
30.0
 62
     5
 63
     7
 74
     2
 91
        2
 64
     7
 65
     7
 75
     1
175
     1
 42
40.0
 92
        8
 66
     7
 43
1.0
 76
     1
 77
     6
 78
     2
 67
     7
 79
     3
170
     0
171
     0
290
     0
174
     0
 93
        1
 44
0.0
173
     0
291
     0
 45
0.0
1001
ACAD
1000
AcDbSavedByObjectVersion
1070
     0
  0
VISUALSTYLE
  5
3F
102
{ACAD_REACTORS
330
2A
102
}
102
{ACAD_XDICTIONARY
360
B6
102
}
330
2A
100
AcDbVisualStyle
  2
Sketchy
 70
    24
 71
     1
 72
     2
 73
     2
 90
        0
 40
0.6
 41
30.0
 62
     5
 63
     7
 74
     2
 91
        2
 64
     7
 65
     7
 75
     1
175
     1
 42
40.0
 92
       11
 66
     7
 43
1.0
 76
     1
 77
     6
 78
     2
 67
     7
 79
     6
170
     0
171
     0
290
     0
174
     0
 93
        1
 44
0.0
173
     0
291
     0
 45
0.0
1001
ACAD
1000
AcDbSavedByObjectVersion
1070
     0
  0
VISUALSTYLE
  5
37
102
{ACAD_REACTORS
330
2A
102
}
102
{ACAD_XDICTIONARY
360
A6
102
}
330
2A
100
AcDbVisualStyle
  2
Thicken
 70
    13
 71
     2
 72
     2
 73
     0
 90
        0
 40
0.6
 41
30.0
 62
     5
 63
     7
 74
     1
 91
        4
 64
     7
 65
   257
 75
     1
175
     1
 42
1.0
 92
       12
 66
     7
 43
1.0
 76
     1
 77
     6
 78
     2
 67
     7
 79
     5
170
     0
171
     0
290
     0
174
     0
 93
        1
 44
0.0
173
     0
291
     1
 45
0.0
1001
ACAD
1000
AcDbSavedByObjectVersion
1070
     0
  0
VISUALSTYLE
  5
30
102
{ACAD_REACTORS
330
2A
102
}
102
{ACAD_XDICTIONARY
360
98
102
}
330
2A
100
AcDbVisualStyle
  2
Wireframe
 70
     5
 71
     0
 72
     2
 73
     0
 90
        0
 40
0.6
 41
30.0
 62
     5
 63
     7
 74
     1
 91
        4
 64
     7
 65
   257
 75
     1
175
     1
 42
1.0
 92
        0
 66
   257
 43
1.0
 76
     1
 77
     6
 78
     2
 67
     7
 79
     3
170
     0
171
     0
290
     0
174
     0
 93
        1
 44
0.0
173
     0
291
     0
 45
0.0
1001
ACAD
1000
AcDbSavedByObjectVersion
1070
     0
  0
VISUALSTYLE
  5
40
102
{ACAD_REACTORS
330
2A
102
}
102
{ACAD_XDICTIONARY
360
B8
102
}
330
2A
100
AcDbVisualStyle
  2
X-Ray
 70
    25
 71
     2
 72
     2
 73
     1
 90
        1
 40
0.5
 41
30.0
 62
     5
 63
     7
 74
     1
 91
        0
 64
     7
 65
   257
 75
     1
175
     1
 42
1.0
 92
        8
 66
     7
 43
1.0
 76
     1
 77
     6
 78
     2
 67
     7
 79
     3
170
     0
171
     0
290
     0
174
     0
 93
       13
 44
0.0
173
     0
291
     0
 45
0.0
1001
ACAD
1000
AcDbSavedByObjectVersion
1070
     0
  0
DICTIONARYVAR
  5
8C
102
{ACAD_REACTORS
330
82
102
}
330
82
100
DictionaryVariables
280
     0
  1
1:1
  0
DICTIONARYVAR
  5
84
102
{ACAD_REACTORS
330
82
102
}
330
82
100
DictionaryVariables
280
     0
  1
Standard
  0
DICTIONARYVAR
  5
83
102
{ACAD_REACTORS
330
82
102
}
330
82
100
DictionaryVariables
280
     0
  1
Standard
  0
DICTIONARYVAR
  5
87
102
{ACAD_REACTORS
330
82
102
}
330
82
100
DictionaryVariables
280
     0
  1
2
  0
DICTIONARYVAR
  5
88
102
{ACAD_REACTORS
330
82
102
}
330
82
100
DictionaryVariables
280
     0
  1
1
  0
DICTIONARYVAR
  5
8D
102
{ACAD_REACTORS
330
82
102
}
330
82
100
DictionaryVariables
280
     0
  1
1
  0
DICTIONARY
  5
C0
330
45
100
AcDbDictionary
280
     1
281
     1
  3
ACAD_XREC_ROUNDTRIP
360
C1
  0
DICTIONARY
  5
BE
330
44
100
AcDbDictionary
280
     1
281
     1
  3
ACAD_XREC_ROUNDTRIP
360
BF
  0
DICTIONARY
  5
C2
330
46
100
AcDbDictionary
280
     1
281
     1
  3
ACAD_XREC_ROUNDTRIP
360
C3
  0
DICTIONARY
  5
C5
330
6C
100
AcDbDictionary
280
     1
281
     1
  3
ACAD_XREC_ROUNDTRIP
360
C6
  0
DICTIONARY
  5
96
330
2F
100
AcDbDictionary
280
     1
281
     1
  3
ACAD_XREC_ROUNDTRIP
360
97
  0
DICTIONARY
  5
9C
330
32
100
AcDbDictionary
280
     1
281
     1
  3
ACAD_XREC_ROUNDTRIP
360
9D
  0
DICTIONARY
  5
A4
330
36
100
AcDbDictionary
280
     1
281
     1
  3
ACAD_XREC_ROUNDTRIP
360
A5
  0
DICTIONARY
  5
AC
330
3A
100
AcDbDictionary
280
     1
281
     1
  3
ACAD_XREC_ROUNDTRIP
360
AD
  0
DICTIONARY
  5
A0
330
34
100
AcDbDictionary
280
     1
281
     1
  3
ACAD_XREC_ROUNDTRIP
360
A1
  0
DICTIONARY
  5
A2
330
35
100
AcDbDictionary
280
     1
281
     1
  3
ACAD_XREC_ROUNDTRIP
360
A3
  0
DICTIONARY
  5
B2
330
3D
100
AcDbDictionary
280
     1
281
     1
  3
ACAD_XREC_ROUNDTRIP
360
B3
  0
DICTIONARY
  5
AA
330
39
100
AcDbDictionary
280
     1
281
     1
  3
ACAD_XREC_ROUNDTRIP
360
AB
  0
DICTIONARY
  5
8E
330
2B
100
AcDbDictionary
280
     1
281
     1
  3
ACAD_XREC_ROUNDTRIP
360
8F
  0
DICTIONARY
  5
90
330
2C
100
AcDbDictionary
280
     1
281
     1
  3
ACAD_XREC_ROUNDTRIP
360
91
  0
DICTIONARY
  5
92
330
2D
100
AcDbDictionary
280
     1
281
     1
  3
ACAD_XREC_ROUNDTRIP
360
93
  0
DICTIONARY
  5
94
330
2E
100
AcDbDictionary
280
     1
281
     1
  3
ACAD_XREC_ROUNDTRIP
360
95
  0
DICTIONARY
  5
9A
330
31
100
AcDbDictionary
280
     1
281
     1
  3
ACAD_XREC_ROUNDTRIP
360
9B
  0
DICTIONARY
  5
AE
330
3B
100
AcDbDictionary
280
     1
281
     1
  3
ACAD_XREC_ROUNDTRIP
360
AF
  0
DICTIONARY
  5
A8
330
38
100
AcDbDictionary
280
     1
281
     1
  3
ACAD_XREC_ROUNDTRIP
360
A9
  0
DICTIONARY
  5
B0
330
3C
100
AcDbDictionary
280
     1
281
     1
  3
ACAD_XREC_ROUNDTRIP
360
B1
  0
DICTIONARY
  5
9E
330
33
100
AcDbDictionary
280
     1
281
     1
  3
ACAD_XREC_ROUNDTRIP
360
9F
  0
DICTIONARY
  5
BC
330
42
100
AcDbDictionary
280
     1
281
     1
  3
ACAD_XREC_ROUNDTRIP
360
BD
  0
DICTIONARY
  5
BA
330
41
100
AcDbDictionary
280
     1
281
     1
  3
ACAD_XREC_ROUNDTRIP
360
BB
  0
DICTIONARY
  5
B4
330
3E
100
AcDbDictionary
280
     1
281
     1
  3
ACAD_XREC_ROUNDTRIP
360
B5
  0
DICTIONARY
  5
B6
330
3F
100
AcDbDictionary
280
     1
281
     1
  3
ACAD_XREC_ROUNDTRIP
360
B7
  0
DICTIONARY
  5
A6
330
37
100
AcDbDictionary
280
     1
281
     1
  3
ACAD_XREC_ROUNDTRIP
360
A7
  0
DICTIONARY
  5
98
330
30
100
AcDbDictionary
280
     1
281
     1
  3
ACAD_XREC_ROUNDTRIP
360
99
  0
DICTIONARY
  5
B8
330
40
100
AcDbDictionary
280
     1
281
     1
  3
ACAD_XREC_ROUNDTRIP
360
B9
  0
XRECORD
  5
C1
102
{ACAD_REACTORS
330
C0
102
}
330
C0
100
AcDbXrecord
280
     1
102
MATERIAL
148
0.0
149
0.0
149
0.0
 93
        0
 94
      127
282
     0
 72
     1
 77
     1
171
     1
175
     1
179
     1
273
     0
  0
XRECORD
  5
BF
102
{ACAD_REACTORS
330
BE
102
}
330
BE
100
AcDbXrecord
280
     1
102
MATERIAL
148
0.0
149
0.0
149
0.0
 93
        0
 94
      127
282
     0
 72
     1
 77
     1
171
     1
175
     1
179
     1
273
     0
  0
XRECORD
  5
C3
102
{ACAD_REACTORS
330
C2
102
}
330
C2
100
AcDbXrecord
280
     1
102
MATERIAL
148
0.0
149
0.0
149
0.0
 93
        0
 94
      127
282
     0
 72
     1
 77
     1
171
     1
175
     1
179
     1
273
     0
  0
XRECORD
  5
C6
102
{ACAD_REACTORS
330
C5
102
}
330
C5
100
AcDbXrecord
280
     1
102
ACAD_ROUNDTRIP_2010_MLEADER_STYLE
  0
XRECORD
  5
97
102
{ACAD_REACTORS
330
96
102
}
330
96
100
AcDbXrecord
280
     1
102
RTVSPropertyOp0
 70
     1
102
RTVSPropertyOp1
 70
     1
102
RTVSPropertyOp2
 70
     1
102
RTVSPropertyOp3
 70
     1
102
RTVSPropertyOp4
 70
     1
102
RTVSPropertyOp5
 70
     1
102
RTVSPropertyOp6
 70
     1
102
RTVSPropertyOp7
 70
     1
102
RTVSPropertyOp8
 70
     1
102
RTVSPropertyOp9
 70
     1
102
RTVSPropertyOp10
 70
     1
102
RTVSPropertyOp11
 70
     1
102
RTVSPropertyOp12
 70
     1
102
RTVSPropertyOp13
 70
     1
102
RTVSPropertyOp14
 70
     1
102
RTVSPropertyOp15
 70
     1
102
RTVSPropertyOp16
 70
     1
102
RTVSPropertyOp17
 70
     1
102
RTVSPropertyOp18
 70
     1
102
RTVSPropertyOp19
 70
     1
102
RTVSPropertyOp20
 70
     1
102
RTVSPropertyOp21
 70
     1
102
RTVSPropertyOp22
 70
     1
102
RTVSPropertyOp23
 70
     1
102
RTVSPropertyOp24
 70
     1
102
RTVSPropertyOp25
 70
     1
102
RTVSPropertyOp26
 70
     1
102
RTVSPropertyOp27
 70
     1
102
RTVSPropertyOp28
 70
     1
102
RTVSPropertyOp29
 70
     1
102
RTVSPropertyOp30
 70
     1
102
RTVSPropertyOp31
 70
     1
102
RTVSPropertyOp32
 70
     1
102
RTVSPropertyOp33
 70
     1
102
RTVSPropertyOp34
 70
     1
102
RTVSPropertyOp35
 70
     1
102
RTVSPropertyOp36
 70
     1
102
RTVSPropertyOp37
 70
     1
102
RTVSPropertyOp38
 70
     1
102
RTVSPropertyOp39
 70
     1
102
RTVSPropertyOp40
 70
     1
102
RTVSPropertyOp41
 70
     1
102
RTVSPropertyOp42
 70
     1
102
RTVSPropertyOp43
 70
     1
102
RTVSPropertyOp44
 70
     1
102
RTVSPropertyOp45
 70
     1
102
RTVSPropertyOp46
 70
     1
102
RTVSPropertyOp47
 70
     1
102
RTVSPropertyOp48
 70
     1
102
RTVSPropertyOp49
 70
     1
102
RTVSPropertyOp50
 70
     1
102
RTVSPropertyOp51
 70
     0
102
RTVSPropertyOp52
 70
     0
102
RTVSPropertyOp53
 70
     1
102
RTVSPropertyOp54
 70
     1
102
RTVSPropertyOp55
 70
     1
102
RTVSPropertyOp56
 70
     1
102
RTVSPropertyOp57
 70
     1
102
RTVSPost2010Prop28
280
     1
102
RTVSPost2010PropOp28
 70
     1
102
RTVSPost2010Prop29
280
     1
102
RTVSPost2010PropOp29
 70
     1
102
RTVSPost2010Prop30
280
     0
102
RTVSPost2010PropOp30
 70
     1
102
RTVSPost2010Prop31
280
     0
102
RTVSPost2010PropOp31
 70
     1
102
RTVSPost2010Prop32
280
     0
102
RTVSPost2010PropOp32
 70
     1
102
RTVSPost2010Prop33
280
     0
102
RTVSPost2010PropOp33
 70
     1
102
RTVSPost2010Prop34
280
     0
102
RTVSPost2010PropOp34
 70
     1
102
RTVSPost2010Prop35
280
     0
102
RTVSPost2010PropOp35
 70
     1
102
RTVSPost2010Prop36
280
     0
102
RTVSPost2010PropOp36
 70
     1
102
RTVSPost2010Prop37
 90
       50
102
RTVSPost2010PropOp37
 70
     1
102
RTVSPost2010Prop38
140
0.0
102
RTVSPost2010PropOp38
 70
     1
102
RTVSPost2010Prop39
140
1.0
102
RTVSPost2010PropOp39
 70
     1
102
RTVSPost2010Prop40
 90
        0
102
RTVSPost2010PropOp40
 70
     1
102
RTVSPost2010Prop41ColorIndex
 90
       18
102
RTVSPost2010Prop41ColorRGB
 90
        0
102
RTVSPost2010PropOp41
 70
     1
102
RTVSPost2010Prop42
 90
       50
102
RTVSPost2010PropOp42
 70
     1
102
RTVSPost2010Prop43
 90
        3
102
RTVSPost2010PropOp43
 70
     1
102
RTVSPost2010Prop44ColorIndex
 90
        5
102
RTVSPost2010Prop44ColorRGB
 90
      255
102
RTVSPost2010PropOp44
 70
     1
102
RTVSPost2010Prop45
280
     0
102
RTVSPost2010PropOp45
 70
     1
102
RTVSPost2010Prop46
 90
       50
102
RTVSPost2010PropOp46
 70
     1
102
RTVSPost2010Prop47
 90
       50
102
RTVSPost2010PropOp47
 70
     1
102
RTVSPost2010Prop48
 90
       50
102
RTVSPost2010PropOp48
 70
     1
102
RTVSPost2010Prop49
280
     0
102
RTVSPost2010PropOp49
 70
     1
102
RTVSPost2010Prop50
 90
       50
102
RTVSPost2010PropOp50
 70
     1
102
RTVSPost2010Prop51ColorIndex
 90
      256
102
RTVSPost2010Prop51ColorRGB
 90
-16777216
102
RTVSPost2010PropOp51
 70
     0
102
RTVSPost2010Prop52
140
1.0
102
RTVSPost2010PropOp52
 70
     0
102
RTVSPost2010Prop53
 90
        2
102
RTVSPost2010PropOp53
 70
     1
102
RTVSPost2010Prop54
  1
strokes_ogs.tif
102
RTVSPost2010PropOp54
 70
     1
102
RTVSPost2010Prop55
280
     0
102
RTVSPost2010PropOp55
 70
     1
102
RTVSPost2010Prop56
140
1.0
102
RTVSPost2010PropOp56
 70
     1
102
RTVSPost2010Prop57
140
1.0
102
RTVSPost2010PropOp57
 70
     1
  0
XRECORD
  5
9D
102
{ACAD_REACTORS
330
9C
102
}
330
9C
100
AcDbXrecord
280
     1
102
RTVSPropertyOp0
 70
     1
102
RTVSPropertyOp1
 70
     1
102
RTVSPropertyOp2
 70
     1
102
RTVSPropertyOp3
 70
     1
102
RTVSPropertyOp4
 70
     1
102
RTVSPropertyOp5
 70
     1
102
RTVSPropertyOp6
 70
     1
102
RTVSPropertyOp7
 70
     1
102
RTVSPropertyOp8
 70
     1
102
RTVSPropertyOp9
 70
     1
102
RTVSPropertyOp10
 70
     1
102
RTVSPropertyOp11
 70
     1
102
RTVSPropertyOp12
 70
     1
102
RTVSPropertyOp13
 70
     1
102
RTVSPropertyOp14
 70
     1
102
RTVSPropertyOp15
 70
     1
102
RTVSPropertyOp16
 70
     1
102
RTVSPropertyOp17
 70
     1
102
RTVSPropertyOp18
 70
     1
102
RTVSPropertyOp19
 70
     1
102
RTVSPropertyOp20
 70
     1
102
RTVSPropertyOp21
 70
     1
102
RTVSPropertyOp22
 70
     1
102
RTVSPropertyOp23
 70
     1
102
RTVSPropertyOp24
 70
     1
102
RTVSPropertyOp25
 70
     1
102
RTVSPropertyOp26
 70
     1
102
RTVSPropertyOp27
 70
     1
102
RTVSPropertyOp28
 70
     1
102
RTVSPropertyOp29
 70
     1
102
RTVSPropertyOp30
 70
     1
102
RTVSPropertyOp31
 70
     1
102
RTVSPropertyOp32
 70
     1
102
RTVSPropertyOp33
 70
     1
102
RTVSPropertyOp34
 70
     1
102
RTVSPropertyOp35
 70
     1
102
RTVSPropertyOp36
 70
     1
102
RTVSPropertyOp37
 70
     1
102
RTVSPropertyOp38
 70
     1
102
RTVSPropertyOp39
 70
     1
102
RTVSPropertyOp40
 70
     1
102
RTVSPropertyOp41
 70
     1
102
RTVSPropertyOp42
 70
     1
102
RTVSPropertyOp43
 70
     1
102
RTVSPropertyOp44
 70
     1
102
RTVSPropertyOp45
 70
     1
102
RTVSPropertyOp46
 70
     1
102
RTVSPropertyOp47
 70
     1
102
RTVSPropertyOp48
 70
     1
102
RTVSPropertyOp49
 70
     1
102
RTVSPropertyOp50
 70
     1
102
RTVSPropertyOp51
 70
     0
102
RTVSPropertyOp52
 70
     0
102
RTVSPropertyOp53
 70
     1
102
RTVSPropertyOp54
 70
     1
102
RTVSPropertyOp55
 70
     1
102
RTVSPropertyOp56
 70
     1
102
RTVSPropertyOp57
 70
     1
102
RTVSPost2010Prop28
280
     0
102
RTVSPost2010PropOp28
 70
     1
102
RTVSPost2010Prop29
280
     1
102
RTVSPost2010PropOp29
 70
     1
102
RTVSPost2010Prop30
280
     1
102
RTVSPost2010PropOp30
 70
     1
102
RTVSPost2010Prop31
280
     0
102
RTVSPost2010PropOp31
 70
     1
102
RTVSPost2010Prop32
280
     0
102
RTVSPost2010PropOp32
 70
     1
102
RTVSPost2010Prop33
280
     0
102
RTVSPost2010PropOp33
 70
     1
102
RTVSPost2010Prop34
280
     0
102
RTVSPost2010PropOp34
 70
     1
102
RTVSPost2010Prop35
280
     0
102
RTVSPost2010PropOp35
 70
     1
102
RTVSPost2010Prop36
280
     0
102
RTVSPost2010PropOp36
 70
     1
102
RTVSPost2010Prop37
 90
       50
102
RTVSPost2010PropOp37
 70
     1
102
RTVSPost2010Prop38
140
0.0
102
RTVSPost2010PropOp38
 70
     1
102
RTVSPost2010Prop39
140
1.0
102
RTVSPost2010PropOp39
 70
     1
102
RTVSPost2010Prop40
 90
        0
102
RTVSPost2010PropOp40
 70
     1
102
RTVSPost2010Prop41ColorIndex
 90
       18
102
RTVSPost2010Prop41ColorRGB
 90
        0
102
RTVSPost2010PropOp41
 70
     1
102
RTVSPost2010Prop42
 90
       50
102
RTVSPost2010PropOp42
 70
     1
102
RTVSPost2010Prop43
 90
        3
102
RTVSPost2010PropOp43
 70
     1
102
RTVSPost2010Prop44ColorIndex
 90
        5
102
RTVSPost2010Prop44ColorRGB
 90
      255
102
RTVSPost2010PropOp44
 70
     1
102
RTVSPost2010Prop45
280
     0
102
RTVSPost2010PropOp45
 70
     1
102
RTVSPost2010Prop46
 90
       50
102
RTVSPost2010PropOp46
 70
     1
102
RTVSPost2010Prop47
 90
       50
102
RTVSPost2010PropOp47
 70
     1
102
RTVSPost2010Prop48
 90
       50
102
RTVSPost2010PropOp48
 70
     1
102
RTVSPost2010Prop49
280
     0
102
RTVSPost2010PropOp49
 70
     1
102
RTVSPost2010Prop50
 90
       50
102
RTVSPost2010PropOp50
 70
     1
102
RTVSPost2010Prop51ColorIndex
 90
      256
102
RTVSPost2010Prop51ColorRGB
 90
-16777216
102
RTVSPost2010PropOp51
 70
     0
102
RTVSPost2010Prop52
140
1.0
102
RTVSPost2010PropOp52
 70
     0
102
RTVSPost2010Prop53
 90
        2
102
RTVSPost2010PropOp53
 70
     1
102
RTVSPost2010Prop54
  1
strokes_ogs.tif
102
RTVSPost2010PropOp54
 70
     1
102
RTVSPost2010Prop55
280
     0
102
RTVSPost2010PropOp55
 70
     1
102
RTVSPost2010Prop56
140
1.0
102
RTVSPost2010PropOp56
 70
     1
102
RTVSPost2010Prop57
140
1.0
102
RTVSPost2010PropOp57
 70
     1
  0
XRECORD
  5
A5
102
{ACAD_REACTORS
330
A4
102
}
330
A4
100
AcDbXrecord
280
     1
102
RTVSPropertyOp0
 70
     1
102
RTVSPropertyOp1
 70
     1
102
RTVSPropertyOp2
 70
     1
102
RTVSPropertyOp3
 70
     1
102
RTVSPropertyOp4
 70
     1
102
RTVSPropertyOp5
 70
     1
102
RTVSPropertyOp6
 70
     1
102
RTVSPropertyOp7
 70
     1
102
RTVSPropertyOp8
 70
     1
102
RTVSPropertyOp9
 70
     1
102
RTVSPropertyOp10
 70
     1
102
RTVSPropertyOp11
 70
     1
102
RTVSPropertyOp12
 70
     1
102
RTVSPropertyOp13
 70
     1
102
RTVSPropertyOp14
 70
     1
102
RTVSPropertyOp15
 70
     1
102
RTVSPropertyOp16
 70
     1
102
RTVSPropertyOp17
 70
     1
102
RTVSPropertyOp18
 70
     1
102
RTVSPropertyOp19
 70
     1
102
RTVSPropertyOp20
 70
     1
102
RTVSPropertyOp21
 70
     1
102
RTVSPropertyOp22
 70
     1
102
RTVSPropertyOp23
 70
     1
102
RTVSPropertyOp24
 70
     1
102
RTVSPropertyOp25
 70
     1
102
RTVSPropertyOp26
 70
     1
102
RTVSPropertyOp27
 70
     1
102
RTVSPropertyOp28
 70
     1
102
RTVSPropertyOp29
 70
     1
102
RTVSPropertyOp30
 70
     1
102
RTVSPropertyOp31
 70
     1
102
RTVSPropertyOp32
 70
     1
102
RTVSPropertyOp33
 70
     1
102
RTVSPropertyOp34
 70
     1
102
RTVSPropertyOp35
 70
     1
102
RTVSPropertyOp36
 70
     1
102
RTVSPropertyOp37
 70
     1
102
RTVSPropertyOp38
 70
     1
102
RTVSPropertyOp39
 70
     1
102
RTVSPropertyOp40
 70
     1
102
RTVSPropertyOp41
 70
     1
102
RTVSPropertyOp42
 70
     1
102
RTVSPropertyOp43
 70
     1
102
RTVSPropertyOp44
 70
     1
102
RTVSPropertyOp45
 70
     1
102
RTVSPropertyOp46
 70
     1
102
RTVSPropertyOp47
 70
     1
102
RTVSPropertyOp48
 70
     1
102
RTVSPropertyOp49
 70
     1
102
RTVSPropertyOp50
 70
     1
102
RTVSPropertyOp51
 70
     0
102
RTVSPropertyOp52
 70
     0
102
RTVSPropertyOp53
 70
     1
102
RTVSPropertyOp54
 70
     1
102
RTVSPropertyOp55
 70
     1
102
RTVSPropertyOp56
 70
     1
102
RTVSPropertyOp57
 70
     1
102
RTVSPost2010Prop28
280
     0
102
RTVSPost2010PropOp28
 70
     1
102
RTVSPost2010Prop29
280
     1
102
RTVSPost2010PropOp29
 70
     1
102
RTVSPost2010Prop30
280
     1
102
RTVSPost2010PropOp30
 70
     1
102
RTVSPost2010Prop31
280
     0
102
RTVSPost2010PropOp31
 70
     1
102
RTVSPost2010Prop32
280
     0
102
RTVSPost2010PropOp32
 70
     1
102
RTVSPost2010Prop33
280
     0
102
RTVSPost2010PropOp33
 70
     1
102
RTVSPost2010Prop34
280
     0
102
RTVSPost2010PropOp34
 70
     1
102
RTVSPost2010Prop35
280
     0
102
RTVSPost2010PropOp35
 70
     1
102
RTVSPost2010Prop36
280
     0
102
RTVSPost2010PropOp36
 70
     1
102
RTVSPost2010Prop37
 90
       50
102
RTVSPost2010PropOp37
 70
     1
102
RTVSPost2010Prop38
140
0.0
102
RTVSPost2010PropOp38
 70
     1
102
RTVSPost2010Prop39
140
1.0
102
RTVSPost2010PropOp39
 70
     1
102
RTVSPost2010Prop40
 90
        0
102
RTVSPost2010PropOp40
 70
     1
102
RTVSPost2010Prop41ColorIndex
 90
       18
102
RTVSPost2010Prop41ColorRGB
 90
        0
102
RTVSPost2010PropOp41
 70
     1
102
RTVSPost2010Prop42
 90
       50
102
RTVSPost2010PropOp42
 70
     1
102
RTVSPost2010Prop43
 90
        3
102
RTVSPost2010PropOp43
 70
     1
102
RTVSPost2010Prop44ColorIndex
 90
        5
102
RTVSPost2010Prop44ColorRGB
 90
      255
102
RTVSPost2010PropOp44
 70
     1
102
RTVSPost2010Prop45
280
     0
102
RTVSPost2010PropOp45
 70
     1
102
RTVSPost2010Prop46
 90
       50
102
RTVSPost2010PropOp46
 70
     1
102
RTVSPost2010Prop47
 90
       50
102
RTVSPost2010PropOp47
 70
     1
102
RTVSPost2010Prop48
 90
       50
102
RTVSPost2010PropOp48
 70
     1
102
RTVSPost2010Prop49
280
     0
102
RTVSPost2010PropOp49
 70
     1
102
RTVSPost2010Prop50
 90
       50
102
RTVSPost2010PropOp50
 70
     1
102
RTVSPost2010Prop51ColorIndex
 90
      256
102
RTVSPost2010Prop51ColorRGB
 90
-16777216
102
RTVSPost2010PropOp51
 70
     0
102
RTVSPost2010Prop52
140
1.0
102
RTVSPost2010PropOp52
 70
     0
102
RTVSPost2010Prop53
 90
        2
102
RTVSPost2010PropOp53
 70
     1
102
RTVSPost2010Prop54
  1
strokes_ogs.tif
102
RTVSPost2010PropOp54
 70
     1
102
RTVSPost2010Prop55
280
     0
102
RTVSPost2010PropOp55
 70
     1
102
RTVSPost2010Prop56
140
1.0
102
RTVSPost2010PropOp56
 70
     1
102
RTVSPost2010Prop57
140
1.0
102
RTVSPost2010PropOp57
 70
     1
  0
XRECORD
  5
AD
102
{ACAD_REACTORS
330
AC
102
}
330
AC
100
AcDbXrecord
280
     1
102
RTVSPropertyOp0
 70
     1
102
RTVSPropertyOp1
 70
     1
102
RTVSPropertyOp2
 70
     1
102
RTVSPropertyOp3
 70
     1
102
RTVSPropertyOp4
 70
     1
102
RTVSPropertyOp5
 70
     1
102
RTVSPropertyOp6
 70
     1
102
RTVSPropertyOp7
 70
     1
102
RTVSPropertyOp8
 70
     1
102
RTVSPropertyOp9
 70
     1
102
RTVSPropertyOp10
 70
     1
102
RTVSPropertyOp11
 70
     1
102
RTVSPropertyOp12
 70
     1
102
RTVSPropertyOp13
 70
     1
102
RTVSPropertyOp14
 70
     1
102
RTVSPropertyOp15
 70
     1
102
RTVSPropertyOp16
 70
     1
102
RTVSPropertyOp17
 70
     1
102
RTVSPropertyOp18
 70
     1
102
RTVSPropertyOp19
 70
     1
102
RTVSPropertyOp20
 70
     1
102
RTVSPropertyOp21
 70
     1
102
RTVSPropertyOp22
 70
     1
102
RTVSPropertyOp23
 70
     1
102
RTVSPropertyOp24
 70
     1
102
RTVSPropertyOp25
 70
     1
102
RTVSPropertyOp26
 70
     1
102
RTVSPropertyOp27
 70
     1
102
RTVSPropertyOp28
 70
     1
102
RTVSPropertyOp29
 70
     1
102
RTVSPropertyOp30
 70
     1
102
RTVSPropertyOp31
 70
     1
102
RTVSPropertyOp32
 70
     1
102
RTVSPropertyOp33
 70
     1
102
RTVSPropertyOp34
 70
     1
102
RTVSPropertyOp35
 70
     1
102
RTVSPropertyOp36
 70
     1
102
RTVSPropertyOp37
 70
     1
102
RTVSPropertyOp38
 70
     1
102
RTVSPropertyOp39
 70
     1
102
RTVSPropertyOp40
 70
     1
102
RTVSPropertyOp41
 70
     1
102
RTVSPropertyOp42
 70
     1
102
RTVSPropertyOp43
 70
     1
102
RTVSPropertyOp44
 70
     1
102
RTVSPropertyOp45
 70
     1
102
RTVSPropertyOp46
 70
     1
102
RTVSPropertyOp47
 70
     1
102
RTVSPropertyOp48
 70
     1
102
RTVSPropertyOp49
 70
     1
102
RTVSPropertyOp50
 70
     1
102
RTVSPropertyOp51
 70
     0
102
RTVSPropertyOp52
 70
     0
102
RTVSPropertyOp53
 70
     1
102
RTVSPropertyOp54
 70
     1
102
RTVSPropertyOp55
 70
     1
102
RTVSPropertyOp56
 70
     1
102
RTVSPropertyOp57
 70
     1
102
RTVSPost2010Prop28
280
     0
102
RTVSPost2010PropOp28
 70
     1
102
RTVSPost2010Prop29
280
     1
102
RTVSPost2010PropOp29
 70
     1
102
RTVSPost2010Prop30
280
     1
102
RTVSPost2010PropOp30
 70
     1
102
RTVSPost2010Prop31
280
     0
102
RTVSPost2010PropOp31
 70
     1
102
RTVSPost2010Prop32
280
     0
102
RTVSPost2010PropOp32
 70
     1
102
RTVSPost2010Prop33
280
     0
102
RTVSPost2010PropOp33
 70
     1
102
RTVSPost2010Prop34
280
     0
102
RTVSPost2010PropOp34
 70
     1
102
RTVSPost2010Prop35
280
     0
102
RTVSPost2010PropOp35
 70
     1
102
RTVSPost2010Prop36
280
     0
102
RTVSPost2010PropOp36
 70
     1
102
RTVSPost2010Prop37
 90
       50
102
RTVSPost2010PropOp37
 70
     1
102
RTVSPost2010Prop38
140
0.0
102
RTVSPost2010PropOp38
 70
     1
102
RTVSPost2010Prop39
140
1.0
102
RTVSPost2010PropOp39
 70
     1
102
RTVSPost2010Prop40
 90
        0
102
RTVSPost2010PropOp40
 70
     1
102
RTVSPost2010Prop41ColorIndex
 90
       18
102
RTVSPost2010Prop41ColorRGB
 90
        0
102
RTVSPost2010PropOp41
 70
     1
102
RTVSPost2010Prop42
 90
       50
102
RTVSPost2010PropOp42
 70
     1
102
RTVSPost2010Prop43
 90
        3
102
RTVSPost2010PropOp43
 70
     1
102
RTVSPost2010Prop44ColorIndex
 90
        5
102
RTVSPost2010Prop44ColorRGB
 90
      255
102
RTVSPost2010PropOp44
 70
     1
102
RTVSPost2010Prop45
280
     0
102
RTVSPost2010PropOp45
 70
     1
102
RTVSPost2010Prop46
 90
       50
102
RTVSPost2010PropOp46
 70
     1
102
RTVSPost2010Prop47
 90
       50
102
RTVSPost2010PropOp47
 70
     1
102
RTVSPost2010Prop48
 90
       50
102
RTVSPost2010PropOp48
 70
     1
102
RTVSPost2010Prop49
280
     0
102
RTVSPost2010PropOp49
 70
     1
102
RTVSPost2010Prop50
 90
       50
102
RTVSPost2010PropOp50
 70
     1
102
RTVSPost2010Prop51ColorIndex
 90
      256
102
RTVSPost2010Prop51ColorRGB
 90
-16777216
102
RTVSPost2010PropOp51
 70
     0
102
RTVSPost2010Prop52
140
1.0
102
RTVSPost2010PropOp52
 70
     0
102
RTVSPost2010Prop53
 90
        2
102
RTVSPost2010PropOp53
 70
     1
102
RTVSPost2010Prop54
  1
strokes_ogs.tif
102
RTVSPost2010PropOp54
 70
     1
102
RTVSPost2010Prop55
280
     0
102
RTVSPost2010PropOp55
 70
     1
102
RTVSPost2010Prop56
140
1.0
102
RTVSPost2010PropOp56
 70
     1
102
RTVSPost2010Prop57
140
1.0
102
RTVSPost2010PropOp57
 70
     1
  0
XRECORD
  5
A1
102
{ACAD_REACTORS
330
A0
102
}
330
A0
100
AcDbXrecord
280
     1
102
RTVSPropertyOp0
 70
     1
102
RTVSPropertyOp1
 70
     1
102
RTVSPropertyOp2
 70
     1
102
RTVSPropertyOp3
 70
     1
102
RTVSPropertyOp4
 70
     1
102
RTVSPropertyOp5
 70
     1
102
RTVSPropertyOp6
 70
     1
102
RTVSPropertyOp7
 70
     1
102
RTVSPropertyOp8
 70
     1
102
RTVSPropertyOp9
 70
     1
102
RTVSPropertyOp10
 70
     1
102
RTVSPropertyOp11
 70
     1
102
RTVSPropertyOp12
 70
     1
102
RTVSPropertyOp13
 70
     1
102
RTVSPropertyOp14
 70
     1
102
RTVSPropertyOp15
 70
     1
102
RTVSPropertyOp16
 70
     1
102
RTVSPropertyOp17
 70
     1
102
RTVSPropertyOp18
 70
     1
102
RTVSPropertyOp19
 70
     1
102
RTVSPropertyOp20
 70
     1
102
RTVSPropertyOp21
 70
     1
102
RTVSPropertyOp22
 70
     1
102
RTVSPropertyOp23
 70
     1
102
RTVSPropertyOp24
 70
     1
102
RTVSPropertyOp25
 70
     1
102
RTVSPropertyOp26
 70
     1
102
RTVSPropertyOp27
 70
     1
102
RTVSPropertyOp28
 70
     1
102
RTVSPropertyOp29
 70
     1
102
RTVSPropertyOp30
 70
     1
102
RTVSPropertyOp31
 70
     1
102
RTVSPropertyOp32
 70
     1
102
RTVSPropertyOp33
 70
     1
102
RTVSPropertyOp34
 70
     1
102
RTVSPropertyOp35
 70
     1
102
RTVSPropertyOp36
 70
     1
102
RTVSPropertyOp37
 70
     1
102
RTVSPropertyOp38
 70
     1
102
RTVSPropertyOp39
 70
     1
102
RTVSPropertyOp40
 70
     1
102
RTVSPropertyOp41
 70
     1
102
RTVSPropertyOp42
 70
     1
102
RTVSPropertyOp43
 70
     1
102
RTVSPropertyOp44
 70
     1
102
RTVSPropertyOp45
 70
     1
102
RTVSPropertyOp46
 70
     1
102
RTVSPropertyOp47
 70
     1
102
RTVSPropertyOp48
 70
     1
102
RTVSPropertyOp49
 70
     1
102
RTVSPropertyOp50
 70
     1
102
RTVSPropertyOp51
 70
     0
102
RTVSPropertyOp52
 70
     0
102
RTVSPropertyOp53
 70
     1
102
RTVSPropertyOp54
 70
     1
102
RTVSPropertyOp55
 70
     1
102
RTVSPropertyOp56
 70
     1
102
RTVSPropertyOp57
 70
     1
102
RTVSPost2010Prop28
280
     0
102
RTVSPost2010PropOp28
 70
     1
102
RTVSPost2010Prop29
280
     1
102
RTVSPost2010PropOp29
 70
     1
102
RTVSPost2010Prop30
280
     1
102
RTVSPost2010PropOp30
 70
     1
102
RTVSPost2010Prop31
280
     0
102
RTVSPost2010PropOp31
 70
     1
102
RTVSPost2010Prop32
280
     0
102
RTVSPost2010PropOp32
 70
     1
102
RTVSPost2010Prop33
280
     0
102
RTVSPost2010PropOp33
 70
     1
102
RTVSPost2010Prop34
280
     0
102
RTVSPost2010PropOp34
 70
     1
102
RTVSPost2010Prop35
280
     0
102
RTVSPost2010PropOp35
 70
     1
102
RTVSPost2010Prop36
280
     0
102
RTVSPost2010PropOp36
 70
     1
102
RTVSPost2010Prop37
 90
       50
102
RTVSPost2010PropOp37
 70
     1
102
RTVSPost2010Prop38
140
0.0
102
RTVSPost2010PropOp38
 70
     1
102
RTVSPost2010Prop39
140
1.0
102
RTVSPost2010PropOp39
 70
     1
102
RTVSPost2010Prop40
 90
        0
102
RTVSPost2010PropOp40
 70
     1
102
RTVSPost2010Prop41ColorIndex
 90
       18
102
RTVSPost2010Prop41ColorRGB
 90
        0
102
RTVSPost2010PropOp41
 70
     1
102
RTVSPost2010Prop42
 90
       50
102
RTVSPost2010PropOp42
 70
     1
102
RTVSPost2010Prop43
 90
        3
102
RTVSPost2010PropOp43
 70
     1
102
RTVSPost2010Prop44ColorIndex
 90
        5
102
RTVSPost2010Prop44ColorRGB
 90
      255
102
RTVSPost2010PropOp44
 70
     1
102
RTVSPost2010Prop45
280
     0
102
RTVSPost2010PropOp45
 70
     1
102
RTVSPost2010Prop46
 90
       50
102
RTVSPost2010PropOp46
 70
     1
102
RTVSPost2010Prop47
 90
       50
102
RTVSPost2010PropOp47
 70
     1
102
RTVSPost2010Prop48
 90
       50
102
RTVSPost2010PropOp48
 70
     1
102
RTVSPost2010Prop49
280
     0
102
RTVSPost2010PropOp49
 70
     1
102
RTVSPost2010Prop50
 90
       50
102
RTVSPost2010PropOp50
 70
     1
102
RTVSPost2010Prop51ColorIndex
 90
      256
102
RTVSPost2010Prop51ColorRGB
 90
-16777216
102
RTVSPost2010PropOp51
 70
     0
102
RTVSPost2010Prop52
140
1.0
102
RTVSPost2010PropOp52
 70
     0
102
RTVSPost2010Prop53
 90
        2
102
RTVSPost2010PropOp53
 70
     1
102
RTVSPost2010Prop54
  1
strokes_ogs.tif
102
RTVSPost2010PropOp54
 70
     1
102
RTVSPost2010Prop55
280
     0
102
RTVSPost2010PropOp55
 70
     1
102
RTVSPost2010Prop56
140
1.0
102
RTVSPost2010PropOp56
 70
     1
102
RTVSPost2010Prop57
140
1.0
102
RTVSPost2010PropOp57
 70
     1
  0
XRECORD
  5
A3
102
{ACAD_REACTORS
330
A2
102
}
330
A2
100
AcDbXrecord
280
     1
102
RTVSPropertyOp0
 70
     1
102
RTVSPropertyOp1
 70
     1
102
RTVSPropertyOp2
 70
     1
102
RTVSPropertyOp3
 70
     1
102
RTVSPropertyOp4
 70
     1
102
RTVSPropertyOp5
 70
     1
102
RTVSPropertyOp6
 70
     1
102
RTVSPropertyOp7
 70
     1
102
RTVSPropertyOp8
 70
     1
102
RTVSPropertyOp9
 70
     1
102
RTVSPropertyOp10
 70
     1
102
RTVSPropertyOp11
 70
     1
102
RTVSPropertyOp12
 70
     1
102
RTVSPropertyOp13
 70
     1
102
RTVSPropertyOp14
 70
     1
102
RTVSPropertyOp15
 70
     1
102
RTVSPropertyOp16
 70
     1
102
RTVSPropertyOp17
 70
     1
102
RTVSPropertyOp18
 70
     1
102
RTVSPropertyOp19
 70
     1
102
RTVSPropertyOp20
 70
     1
102
RTVSPropertyOp21
 70
     1
102
RTVSPropertyOp22
 70
     1
102
RTVSPropertyOp23
 70
     1
102
RTVSPropertyOp24
 70
     1
102
RTVSPropertyOp25
 70
     1
102
RTVSPropertyOp26
 70
     1
102
RTVSPropertyOp27
 70
     1
102
RTVSPropertyOp28
 70
     1
102
RTVSPropertyOp29
 70
     1
102
RTVSPropertyOp30
 70
     1
102
RTVSPropertyOp31
 70
     1
102
RTVSPropertyOp32
 70
     1
102
RTVSPropertyOp33
 70
     1
102
RTVSPropertyOp34
 70
     1
102
RTVSPropertyOp35
 70
     1
102
RTVSPropertyOp36
 70
     1
102
RTVSPropertyOp37
 70
     1
102
RTVSPropertyOp38
 70
     1
102
RTVSPropertyOp39
 70
     1
102
RTVSPropertyOp40
 70
     1
102
RTVSPropertyOp41
 70
     1
102
RTVSPropertyOp42
 70
     1
102
RTVSPropertyOp43
 70
     1
102
RTVSPropertyOp44
 70
     1
102
RTVSPropertyOp45
 70
     1
102
RTVSPropertyOp46
 70
     1
102
RTVSPropertyOp47
 70
     1
102
RTVSPropertyOp48
 70
     1
102
RTVSPropertyOp49
 70
     1
102
RTVSPropertyOp50
 70
     1
102
RTVSPropertyOp51
 70
     0
102
RTVSPropertyOp52
 70
     0
102
RTVSPropertyOp53
 70
     1
102
RTVSPropertyOp54
 70
     1
102
RTVSPropertyOp55
 70
     1
102
RTVSPropertyOp56
 70
     1
102
RTVSPropertyOp57
 70
     1
102
RTVSPost2010Prop28
280
     0
102
RTVSPost2010PropOp28
 70
     1
102
RTVSPost2010Prop29
280
     1
102
RTVSPost2010PropOp29
 70
     1
102
RTVSPost2010Prop30
280
     1
102
RTVSPost2010PropOp30
 70
     1
102
RTVSPost2010Prop31
280
     0
102
RTVSPost2010PropOp31
 70
     1
102
RTVSPost2010Prop32
280
     0
102
RTVSPost2010PropOp32
 70
     1
102
RTVSPost2010Prop33
280
     0
102
RTVSPost2010PropOp33
 70
     1
102
RTVSPost2010Prop34
280
     0
102
RTVSPost2010PropOp34
 70
     1
102
RTVSPost2010Prop35
280
     0
102
RTVSPost2010PropOp35
 70
     1
102
RTVSPost2010Prop36
280
     0
102
RTVSPost2010PropOp36
 70
     1
102
RTVSPost2010Prop37
 90
       50
102
RTVSPost2010PropOp37
 70
     1
102
RTVSPost2010Prop38
140
0.0
102
RTVSPost2010PropOp38
 70
     1
102
RTVSPost2010Prop39
140
1.0
102
RTVSPost2010PropOp39
 70
     1
102
RTVSPost2010Prop40
 90
        0
102
RTVSPost2010PropOp40
 70
     1
102
RTVSPost2010Prop41ColorIndex
 90
       18
102
RTVSPost2010Prop41ColorRGB
 90
        0
102
RTVSPost2010PropOp41
 70
     1
102
RTVSPost2010Prop42
 90
       50
102
RTVSPost2010PropOp42
 70
     1
102
RTVSPost2010Prop43
 90
        3
102
RTVSPost2010PropOp43
 70
     1
102
RTVSPost2010Prop44ColorIndex
 90
        5
102
RTVSPost2010Prop44ColorRGB
 90
      255
102
RTVSPost2010PropOp44
 70
     1
102
RTVSPost2010Prop45
280
     0
102
RTVSPost2010PropOp45
 70
     1
102
RTVSPost2010Prop46
 90
       50
102
RTVSPost2010PropOp46
 70
     1
102
RTVSPost2010Prop47
 90
       50
102
RTVSPost2010PropOp47
 70
     1
102
RTVSPost2010Prop48
 90
       50
102
RTVSPost2010PropOp48
 70
     1
102
RTVSPost2010Prop49
280
     0
102
RTVSPost2010PropOp49
 70
     1
102
RTVSPost2010Prop50
 90
       50
102
RTVSPost2010PropOp50
 70
     1
102
RTVSPost2010Prop51ColorIndex
 90
      256
102
RTVSPost2010Prop51ColorRGB
 90
-16777216
102
RTVSPost2010PropOp51
 70
     0
102
RTVSPost2010Prop52
140
1.0
102
RTVSPost2010PropOp52
 70
     0
102
RTVSPost2010Prop53
 90
        2
102
RTVSPost2010PropOp53
 70
     1
102
RTVSPost2010Prop54
  1
strokes_ogs.tif
102
RTVSPost2010PropOp54
 70
     1
102
RTVSPost2010Prop55
280
     0
102
RTVSPost2010PropOp55
 70
     1
102
RTVSPost2010Prop56
140
1.0
102
RTVSPost2010PropOp56
 70
     1
102
RTVSPost2010Prop57
140
1.0
102
RTVSPost2010PropOp57
 70
     1
  0
XRECORD
  5
B3
102
{ACAD_REACTORS
330
B2
102
}
330
B2
100
AcDbXrecord
280
     1
102
RTVSPropertyOp0
 70
     0
102
RTVSPropertyOp1
 70
     0
102
RTVSPropertyOp2
 70
     0
102
RTVSPropertyOp3
 70
     0
102
RTVSPropertyOp4
 70
     0
102
RTVSPropertyOp5
 70
     0
102
RTVSPropertyOp6
 70
     0
102
RTVSPropertyOp7
 70
     0
102
RTVSPropertyOp8
 70
     0
102
RTVSPropertyOp9
 70
     0
102
RTVSPropertyOp10
 70
     0
102
RTVSPropertyOp11
 70
     0
102
RTVSPropertyOp12
 70
     0
102
RTVSPropertyOp13
 70
     0
102
RTVSPropertyOp14
 70
     2
102
RTVSPropertyOp15
 70
     0
102
RTVSPropertyOp16
 70
     0
102
RTVSPropertyOp17
 70
     0
102
RTVSPropertyOp18
 70
     0
102
RTVSPropertyOp19
 70
     0
102
RTVSPropertyOp20
 70
     0
102
RTVSPropertyOp21
 70
     0
102
RTVSPropertyOp22
 70
     0
102
RTVSPropertyOp23
 70
     0
102
RTVSPropertyOp24
 70
     0
102
RTVSPropertyOp25
 70
     0
102
RTVSPropertyOp26
 70
     0
102
RTVSPropertyOp27
 70
     0
102
RTVSPropertyOp28
 70
     0
102
RTVSPropertyOp29
 70
     0
102
RTVSPropertyOp30
 70
     0
102
RTVSPropertyOp31
 70
     0
102
RTVSPropertyOp32
 70
     0
102
RTVSPropertyOp33
 70
     0
102
RTVSPropertyOp34
 70
     0
102
RTVSPropertyOp35
 70
     0
102
RTVSPropertyOp36
 70
     0
102
RTVSPropertyOp37
 70
     0
102
RTVSPropertyOp38
 70
     0
102
RTVSPropertyOp39
 70
     0
102
RTVSPropertyOp40
 70
     0
102
RTVSPropertyOp41
 70
     0
102
RTVSPropertyOp42
 70
     0
102
RTVSPropertyOp43
 70
     0
102
RTVSPropertyOp44
 70
     0
102
RTVSPropertyOp45
 70
     0
102
RTVSPropertyOp46
 70
     0
102
RTVSPropertyOp47
 70
     0
102
RTVSPropertyOp48
 70
     0
102
RTVSPropertyOp49
 70
     0
102
RTVSPropertyOp50
 70
     0
102
RTVSPropertyOp51
 70
     0
102
RTVSPropertyOp52
 70
     0
102
RTVSPropertyOp53
 70
     0
102
RTVSPropertyOp54
 70
     0
102
RTVSPropertyOp55
 70
     0
102
RTVSPropertyOp56
 70
     0
102
RTVSPropertyOp57
 70
     0
102
RTVSPost2010Prop28
280
     0
102
RTVSPost2010PropOp28
 70
     0
102
RTVSPost2010Prop29
280
     1
102
RTVSPost2010PropOp29
 70
     0
102
RTVSPost2010Prop30
280
     1
102
RTVSPost2010PropOp30
 70
     0
102
RTVSPost2010Prop31
280
     0
102
RTVSPost2010PropOp31
 70
     0
102
RTVSPost2010Prop32
280
     0
102
RTVSPost2010PropOp32
 70
     0
102
RTVSPost2010Prop33
280
     0
102
RTVSPost2010PropOp33
 70
     0
102
RTVSPost2010Prop34
280
     0
102
RTVSPost2010PropOp34
 70
     0
102
RTVSPost2010Prop35
280
     0
102
RTVSPost2010PropOp35
 70
     0
102
RTVSPost2010Prop36
280
     0
102
RTVSPost2010PropOp36
 70
     0
102
RTVSPost2010Prop37
 90
       50
102
RTVSPost2010PropOp37
 70
     0
102
RTVSPost2010Prop38
140
0.0
102
RTVSPost2010PropOp38
 70
     0
102
RTVSPost2010Prop39
140
1.0
102
RTVSPost2010PropOp39
 70
     0
102
RTVSPost2010Prop40
 90
        0
102
RTVSPost2010PropOp40
 70
     0
102
RTVSPost2010Prop41ColorIndex
 90
       18
102
RTVSPost2010Prop41ColorRGB
 90
        0
102
RTVSPost2010PropOp41
 70
     0
102
RTVSPost2010Prop42
 90
       50
102
RTVSPost2010PropOp42
 70
     0
102
RTVSPost2010Prop43
 90
        3
102
RTVSPost2010PropOp43
 70
     0
102
RTVSPost2010Prop44ColorIndex
 90
        5
102
RTVSPost2010Prop44ColorRGB
 90
      255
102
RTVSPost2010PropOp44
 70
     0
102
RTVSPost2010Prop45
280
     0
102
RTVSPost2010PropOp45
 70
     0
102
RTVSPost2010Prop46
 90
       50
102
RTVSPost2010PropOp46
 70
     0
102
RTVSPost2010Prop47
 90
       50
102
RTVSPost2010PropOp47
 70
     0
102
RTVSPost2010Prop48
 90
       50
102
RTVSPost2010PropOp48
 70
     0
102
RTVSPost2010Prop49
280
     0
102
RTVSPost2010PropOp49
 70
     0
102
RTVSPost2010Prop50
 90
       50
102
RTVSPost2010PropOp50
 70
     0
102
RTVSPost2010Prop51ColorIndex
 90
      256
102
RTVSPost2010Prop51ColorRGB
 90
-16777216
102
RTVSPost2010PropOp51
 70
     0
102
RTVSPost2010Prop52
140
1.0
102
RTVSPost2010PropOp52
 70
     0
102
RTVSPost2010Prop53
 90
        2
102
RTVSPost2010PropOp53
 70
     0
102
RTVSPost2010Prop54
  1
strokes_ogs.tif
102
RTVSPost2010PropOp54
 70
     0
102
RTVSPost2010Prop55
280
     0
102
RTVSPost2010PropOp55
 70
     0
102
RTVSPost2010Prop56
140
1.0
102
RTVSPost2010PropOp56
 70
     0
102
RTVSPost2010Prop57
140
1.0
102
RTVSPost2010PropOp57
 70
     0
  0
XRECORD
  5
AB
102
{ACAD_REACTORS
330
AA
102
}
330
AA
100
AcDbXrecord
280
     1
102
RTVSPropertyOp0
 70
     1
102
RTVSPropertyOp1
 70
     1
102
RTVSPropertyOp2
 70
     1
102
RTVSPropertyOp3
 70
     1
102
RTVSPropertyOp4
 70
     1
102
RTVSPropertyOp5
 70
     1
102
RTVSPropertyOp6
 70
     1
102
RTVSPropertyOp7
 70
     1
102
RTVSPropertyOp8
 70
     1
102
RTVSPropertyOp9
 70
     1
102
RTVSPropertyOp10
 70
     1
102
RTVSPropertyOp11
 70
     1
102
RTVSPropertyOp12
 70
     1
102
RTVSPropertyOp13
 70
     1
102
RTVSPropertyOp14
 70
     1
102
RTVSPropertyOp15
 70
     1
102
RTVSPropertyOp16
 70
     1
102
RTVSPropertyOp17
 70
     1
102
RTVSPropertyOp18
 70
     1
102
RTVSPropertyOp19
 70
     1
102
RTVSPropertyOp20
 70
     1
102
RTVSPropertyOp21
 70
     1
102
RTVSPropertyOp22
 70
     1
102
RTVSPropertyOp23
 70
     1
102
RTVSPropertyOp24
 70
     1
102
RTVSPropertyOp25
 70
     1
102
RTVSPropertyOp26
 70
     1
102
RTVSPropertyOp27
 70
     1
102
RTVSPropertyOp28
 70
     1
102
RTVSPropertyOp29
 70
     1
102
RTVSPropertyOp30
 70
     1
102
RTVSPropertyOp31
 70
     1
102
RTVSPropertyOp32
 70
     1
102
RTVSPropertyOp33
 70
     1
102
RTVSPropertyOp34
 70
     1
102
RTVSPropertyOp35
 70
     1
102
RTVSPropertyOp36
 70
     1
102
RTVSPropertyOp37
 70
     1
102
RTVSPropertyOp38
 70
     1
102
RTVSPropertyOp39
 70
     1
102
RTVSPropertyOp40
 70
     1
102
RTVSPropertyOp41
 70
     1
102
RTVSPropertyOp42
 70
     1
102
RTVSPropertyOp43
 70
     1
102
RTVSPropertyOp44
 70
     1
102
RTVSPropertyOp45
 70
     1
102
RTVSPropertyOp46
 70
     1
102
RTVSPropertyOp47
 70
     1
102
RTVSPropertyOp48
 70
     1
102
RTVSPropertyOp49
 70
     1
102
RTVSPropertyOp50
 70
     1
102
RTVSPropertyOp51
 70
     0
102
RTVSPropertyOp52
 70
     0
102
RTVSPropertyOp53
 70
     1
102
RTVSPropertyOp54
 70
     1
102
RTVSPropertyOp55
 70
     1
102
RTVSPropertyOp56
 70
     1
102
RTVSPropertyOp57
 70
     1
102
RTVSPost2010Prop28
280
     0
102
RTVSPost2010PropOp28
 70
     1
102
RTVSPost2010Prop29
280
     1
102
RTVSPost2010PropOp29
 70
     1
102
RTVSPost2010Prop30
280
     1
102
RTVSPost2010PropOp30
 70
     1
102
RTVSPost2010Prop31
280
     0
102
RTVSPost2010PropOp31
 70
     1
102
RTVSPost2010Prop32
280
     0
102
RTVSPost2010PropOp32
 70
     1
102
RTVSPost2010Prop33
280
     0
102
RTVSPost2010PropOp33
 70
     1
102
RTVSPost2010Prop34
280
     0
102
RTVSPost2010PropOp34
 70
     1
102
RTVSPost2010Prop35
280
     0
102
RTVSPost2010PropOp35
 70
     1
102
RTVSPost2010Prop36
280
     0
102
RTVSPost2010PropOp36
 70
     1
102
RTVSPost2010Prop37
 90
       50
102
RTVSPost2010PropOp37
 70
     1
102
RTVSPost2010Prop38
140
0.0
102
RTVSPost2010PropOp38
 70
     1
102
RTVSPost2010Prop39
140
1.0
102
RTVSPost2010PropOp39
 70
     1
102
RTVSPost2010Prop40
 90
        0
102
RTVSPost2010PropOp40
 70
     1
102
RTVSPost2010Prop41ColorIndex
 90
       18
102
RTVSPost2010Prop41ColorRGB
 90
        0
102
RTVSPost2010PropOp41
 70
     1
102
RTVSPost2010Prop42
 90
       50
102
RTVSPost2010PropOp42
 70
     1
102
RTVSPost2010Prop43
 90
        3
102
RTVSPost2010PropOp43
 70
     1
102
RTVSPost2010Prop44ColorIndex
 90
        5
102
RTVSPost2010Prop44ColorRGB
 90
      255
102
RTVSPost2010PropOp44
 70
     1
102
RTVSPost2010Prop45
280
     0
102
RTVSPost2010PropOp45
 70
     1
102
RTVSPost2010Prop46
 90
       50
102
RTVSPost2010PropOp46
 70
     1
102
RTVSPost2010Prop47
 90
       50
102
RTVSPost2010PropOp47
 70
     1
102
RTVSPost2010Prop48
 90
       50
102
RTVSPost2010PropOp48
 70
     1
102
RTVSPost2010Prop49
280
     0
102
RTVSPost2010PropOp49
 70
     1
102
RTVSPost2010Prop50
 90
       50
102
RTVSPost2010PropOp50
 70
     1
102
RTVSPost2010Prop51ColorIndex
 90
      256
102
RTVSPost2010Prop51ColorRGB
 90
-16777216
102
RTVSPost2010PropOp51
 70
     0
102
RTVSPost2010Prop52
140
1.0
102
RTVSPost2010PropOp52
 70
     0
102
RTVSPost2010Prop53
 90
        2
102
RTVSPost2010PropOp53
 70
     1
102
RTVSPost2010Prop54
  1
strokes_ogs.tif
102
RTVSPost2010PropOp54
 70
     1
102
RTVSPost2010Prop55
280
     0
102
RTVSPost2010PropOp55
 70
     1
102
RTVSPost2010Prop56
140
1.0
102
RTVSPost2010PropOp56
 70
     1
102
RTVSPost2010Prop57
140
1.0
102
RTVSPost2010PropOp57
 70
     1
  0
XRECORD
  5
8F
102
{ACAD_REACTORS
330
8E
102
}
330
8E
100
AcDbXrecord
280
     1
102
RTVSPropertyOp0
 70
     1
102
RTVSPropertyOp1
 70
     1
102
RTVSPropertyOp2
 70
     1
102
RTVSPropertyOp3
 70
     1
102
RTVSPropertyOp4
 70
     1
102
RTVSPropertyOp5
 70
     1
102
RTVSPropertyOp6
 70
     1
102
RTVSPropertyOp7
 70
     1
102
RTVSPropertyOp8
 70
     1
102
RTVSPropertyOp9
 70
     1
102
RTVSPropertyOp10
 70
     1
102
RTVSPropertyOp11
 70
     1
102
RTVSPropertyOp12
 70
     1
102
RTVSPropertyOp13
 70
     1
102
RTVSPropertyOp14
 70
     1
102
RTVSPropertyOp15
 70
     1
102
RTVSPropertyOp16
 70
     1
102
RTVSPropertyOp17
 70
     1
102
RTVSPropertyOp18
 70
     1
102
RTVSPropertyOp19
 70
     1
102
RTVSPropertyOp20
 70
     1
102
RTVSPropertyOp21
 70
     1
102
RTVSPropertyOp22
 70
     1
102
RTVSPropertyOp23
 70
     1
102
RTVSPropertyOp24
 70
     1
102
RTVSPropertyOp25
 70
     1
102
RTVSPropertyOp26
 70
     1
102
RTVSPropertyOp27
 70
     1
102
RTVSPropertyOp28
 70
     1
102
RTVSPropertyOp29
 70
     1
102
RTVSPropertyOp30
 70
     1
102
RTVSPropertyOp31
 70
     1
102
RTVSPropertyOp32
 70
     1
102
RTVSPropertyOp33
 70
     1
102
RTVSPropertyOp34
 70
     1
102
RTVSPropertyOp35
 70
     1
102
RTVSPropertyOp36
 70
     1
102
RTVSPropertyOp37
 70
     1
102
RTVSPropertyOp38
 70
     1
102
RTVSPropertyOp39
 70
     1
102
RTVSPropertyOp40
 70
     1
102
RTVSPropertyOp41
 70
     1
102
RTVSPropertyOp42
 70
     1
102
RTVSPropertyOp43
 70
     1
102
RTVSPropertyOp44
 70
     1
102
RTVSPropertyOp45
 70
     1
102
RTVSPropertyOp46
 70
     1
102
RTVSPropertyOp47
 70
     1
102
RTVSPropertyOp48
 70
     1
102
RTVSPropertyOp49
 70
     1
102
RTVSPropertyOp50
 70
     1
102
RTVSPropertyOp51
 70
     0
102
RTVSPropertyOp52
 70
     0
102
RTVSPropertyOp53
 70
     1
102
RTVSPropertyOp54
 70
     1
102
RTVSPropertyOp55
 70
     1
102
RTVSPropertyOp56
 70
     1
102
RTVSPropertyOp57
 70
     1
102
RTVSPost2010Prop28
280
     0
102
RTVSPost2010PropOp28
 70
     1
102
RTVSPost2010Prop29
280
     1
102
RTVSPost2010PropOp29
 70
     1
102
RTVSPost2010Prop30
280
     1
102
RTVSPost2010PropOp30
 70
     1
102
RTVSPost2010Prop31
280
     0
102
RTVSPost2010PropOp31
 70
     1
102
RTVSPost2010Prop32
280
     0
102
RTVSPost2010PropOp32
 70
     1
102
RTVSPost2010Prop33
280
     0
102
RTVSPost2010PropOp33
 70
     1
102
RTVSPost2010Prop34
280
     0
102
RTVSPost2010PropOp34
 70
     1
102
RTVSPost2010Prop35
280
     0
102
RTVSPost2010PropOp35
 70
     1
102
RTVSPost2010Prop36
280
     0
102
RTVSPost2010PropOp36
 70
     1
102
RTVSPost2010Prop37
 90
       50
102
RTVSPost2010PropOp37
 70
     1
102
RTVSPost2010Prop38
140
0.0
102
RTVSPost2010PropOp38
 70
     1
102
RTVSPost2010Prop39
140
1.0
102
RTVSPost2010PropOp39
 70
     1
102
RTVSPost2010Prop40
 90
        0
102
RTVSPost2010PropOp40
 70
     1
102
RTVSPost2010Prop41ColorIndex
 90
       18
102
RTVSPost2010Prop41ColorRGB
 90
        0
102
RTVSPost2010PropOp41
 70
     1
102
RTVSPost2010Prop42
 90
       50
102
RTVSPost2010PropOp42
 70
     1
102
RTVSPost2010Prop43
 90
        3
102
RTVSPost2010PropOp43
 70
     1
102
RTVSPost2010Prop44ColorIndex
 90
        5
102
RTVSPost2010Prop44ColorRGB
 90
      255
102
RTVSPost2010PropOp44
 70
     1
102
RTVSPost2010Prop45
280
     0
102
RTVSPost2010PropOp45
 70
     1
102
RTVSPost2010Prop46
 90
       50
102
RTVSPost2010PropOp46
 70
     1
102
RTVSPost2010Prop47
 90
       50
102
RTVSPost2010PropOp47
 70
     1
102
RTVSPost2010Prop48
 90
       50
102
RTVSPost2010PropOp48
 70
     1
102
RTVSPost2010Prop49
280
     0
102
RTVSPost2010PropOp49
 70
     1
102
RTVSPost2010Prop50
 90
       50
102
RTVSPost2010PropOp50
 70
     1
102
RTVSPost2010Prop51ColorIndex
 90
      256
102
RTVSPost2010Prop51ColorRGB
 90
-16777216
102
RTVSPost2010PropOp51
 70
     0
102
RTVSPost2010Prop52
140
1.0
102
RTVSPost2010PropOp52
 70
     0
102
RTVSPost2010Prop53
 90
        2
102
RTVSPost2010PropOp53
 70
     1
102
RTVSPost2010Prop54
  1
strokes_ogs.tif
102
RTVSPost2010PropOp54
 70
     1
102
RTVSPost2010Prop55
280
     0
102
RTVSPost2010PropOp55
 70
     1
102
RTVSPost2010Prop56
140
1.0
102
RTVSPost2010PropOp56
 70
     1
102
RTVSPost2010Prop57
140
1.0
102
RTVSPost2010PropOp57
 70
     1
  0
XRECORD
  5
91
102
{ACAD_REACTORS
330
90
102
}
330
90
100
AcDbXrecord
280
     1
102
RTVSPropertyOp0
 70
     1
102
RTVSPropertyOp1
 70
     1
102
RTVSPropertyOp2
 70
     1
102
RTVSPropertyOp3
 70
     1
102
RTVSPropertyOp4
 70
     1
102
RTVSPropertyOp5
 70
     1
102
RTVSPropertyOp6
 70
     1
102
RTVSPropertyOp7
 70
     1
102
RTVSPropertyOp8
 70
     1
102
RTVSPropertyOp9
 70
     1
102
RTVSPropertyOp10
 70
     1
102
RTVSPropertyOp11
 70
     1
102
RTVSPropertyOp12
 70
     1
102
RTVSPropertyOp13
 70
     1
102
RTVSPropertyOp14
 70
     1
102
RTVSPropertyOp15
 70
     1
102
RTVSPropertyOp16
 70
     1
102
RTVSPropertyOp17
 70
     1
102
RTVSPropertyOp18
 70
     1
102
RTVSPropertyOp19
 70
     1
102
RTVSPropertyOp20
 70
     1
102
RTVSPropertyOp21
 70
     1
102
RTVSPropertyOp22
 70
     1
102
RTVSPropertyOp23
 70
     1
102
RTVSPropertyOp24
 70
     1
102
RTVSPropertyOp25
 70
     1
102
RTVSPropertyOp26
 70
     1
102
RTVSPropertyOp27
 70
     1
102
RTVSPropertyOp28
 70
     1
102
RTVSPropertyOp29
 70
     1
102
RTVSPropertyOp30
 70
     1
102
RTVSPropertyOp31
 70
     1
102
RTVSPropertyOp32
 70
     1
102
RTVSPropertyOp33
 70
     1
102
RTVSPropertyOp34
 70
     1
102
RTVSPropertyOp35
 70
     1
102
RTVSPropertyOp36
 70
     1
102
RTVSPropertyOp37
 70
     1
102
RTVSPropertyOp38
 70
     1
102
RTVSPropertyOp39
 70
     1
102
RTVSPropertyOp40
 70
     1
102
RTVSPropertyOp41
 70
     1
102
RTVSPropertyOp42
 70
     1
102
RTVSPropertyOp43
 70
     1
102
RTVSPropertyOp44
 70
     1
102
RTVSPropertyOp45
 70
     1
102
RTVSPropertyOp46
 70
     1
102
RTVSPropertyOp47
 70
     1
102
RTVSPropertyOp48
 70
     1
102
RTVSPropertyOp49
 70
     1
102
RTVSPropertyOp50
 70
     1
102
RTVSPropertyOp51
 70
     0
102
RTVSPropertyOp52
 70
     0
102
RTVSPropertyOp53
 70
     1
102
RTVSPropertyOp54
 70
     1
102
RTVSPropertyOp55
 70
     1
102
RTVSPropertyOp56
 70
     1
102
RTVSPropertyOp57
 70
     1
102
RTVSPost2010Prop28
280
     0
102
RTVSPost2010PropOp28
 70
     1
102
RTVSPost2010Prop29
280
     1
102
RTVSPost2010PropOp29
 70
     1
102
RTVSPost2010Prop30
280
     1
102
RTVSPost2010PropOp30
 70
     1
102
RTVSPost2010Prop31
280
     0
102
RTVSPost2010PropOp31
 70
     1
102
RTVSPost2010Prop32
280
     0
102
RTVSPost2010PropOp32
 70
     1
102
RTVSPost2010Prop33
280
     0
102
RTVSPost2010PropOp33
 70
     1
102
RTVSPost2010Prop34
280
     0
102
RTVSPost2010PropOp34
 70
     1
102
RTVSPost2010Prop35
280
     0
102
RTVSPost2010PropOp35
 70
     1
102
RTVSPost2010Prop36
280
     0
102
RTVSPost2010PropOp36
 70
     1
102
RTVSPost2010Prop37
 90
       50
102
RTVSPost2010PropOp37
 70
     1
102
RTVSPost2010Prop38
140
0.0
102
RTVSPost2010PropOp38
 70
     1
102
RTVSPost2010Prop39
140
1.0
102
RTVSPost2010PropOp39
 70
     1
102
RTVSPost2010Prop40
 90
        0
102
RTVSPost2010PropOp40
 70
     1
102
RTVSPost2010Prop41ColorIndex
 90
       18
102
RTVSPost2010Prop41ColorRGB
 90
        0
102
RTVSPost2010PropOp41
 70
     1
102
RTVSPost2010Prop42
 90
       50
102
RTVSPost2010PropOp42
 70
     1
102
RTVSPost2010Prop43
 90
        3
102
RTVSPost2010PropOp43
 70
     1
102
RTVSPost2010Prop44ColorIndex
 90
        5
102
RTVSPost2010Prop44ColorRGB
 90
      255
102
RTVSPost2010PropOp44
 70
     1
102
RTVSPost2010Prop45
280
     0
102
RTVSPost2010PropOp45
 70
     1
102
RTVSPost2010Prop46
 90
       50
102
RTVSPost2010PropOp46
 70
     1
102
RTVSPost2010Prop47
 90
       50
102
RTVSPost2010PropOp47
 70
     1
102
RTVSPost2010Prop48
 90
       50
102
RTVSPost2010PropOp48
 70
     1
102
RTVSPost2010Prop49
280
     0
102
RTVSPost2010PropOp49
 70
     1
102
RTVSPost2010Prop50
 90
       50
102
RTVSPost2010PropOp50
 70
     1
102
RTVSPost2010Prop51ColorIndex
 90
      256
102
RTVSPost2010Prop51ColorRGB
 90
-16777216
102
RTVSPost2010PropOp51
 70
     0
102
RTVSPost2010Prop52
140
1.0
102
RTVSPost2010PropOp52
 70
     0
102
RTVSPost2010Prop53
 90
        2
102
RTVSPost2010PropOp53
 70
     1
102
RTVSPost2010Prop54
  1
strokes_ogs.tif
102
RTVSPost2010PropOp54
 70
     1
102
RTVSPost2010Prop55
280
     0
102
RTVSPost2010PropOp55
 70
     1
102
RTVSPost2010Prop56
140
1.0
102
RTVSPost2010PropOp56
 70
     1
102
RTVSPost2010Prop57
140
1.0
102
RTVSPost2010PropOp57
 70
     1
  0
XRECORD
  5
93
102
{ACAD_REACTORS
330
92
102
}
330
92
100
AcDbXrecord
280
     1
102
RTVSPropertyOp0
 70
     1
102
RTVSPropertyOp1
 70
     1
102
RTVSPropertyOp2
 70
     1
102
RTVSPropertyOp3
 70
     1
102
RTVSPropertyOp4
 70
     1
102
RTVSPropertyOp5
 70
     1
102
RTVSPropertyOp6
 70
     1
102
RTVSPropertyOp7
 70
     1
102
RTVSPropertyOp8
 70
     1
102
RTVSPropertyOp9
 70
     1
102
RTVSPropertyOp10
 70
     1
102
RTVSPropertyOp11
 70
     1
102
RTVSPropertyOp12
 70
     1
102
RTVSPropertyOp13
 70
     1
102
RTVSPropertyOp14
 70
     1
102
RTVSPropertyOp15
 70
     1
102
RTVSPropertyOp16
 70
     1
102
RTVSPropertyOp17
 70
     1
102
RTVSPropertyOp18
 70
     1
102
RTVSPropertyOp19
 70
     1
102
RTVSPropertyOp20
 70
     1
102
RTVSPropertyOp21
 70
     1
102
RTVSPropertyOp22
 70
     1
102
RTVSPropertyOp23
 70
     1
102
RTVSPropertyOp24
 70
     1
102
RTVSPropertyOp25
 70
     1
102
RTVSPropertyOp26
 70
     1
102
RTVSPropertyOp27
 70
     1
102
RTVSPropertyOp28
 70
     1
102
RTVSPropertyOp29
 70
     1
102
RTVSPropertyOp30
 70
     1
102
RTVSPropertyOp31
 70
     1
102
RTVSPropertyOp32
 70
     1
102
RTVSPropertyOp33
 70
     1
102
RTVSPropertyOp34
 70
     1
102
RTVSPropertyOp35
 70
     1
102
RTVSPropertyOp36
 70
     1
102
RTVSPropertyOp37
 70
     1
102
RTVSPropertyOp38
 70
     1
102
RTVSPropertyOp39
 70
     1
102
RTVSPropertyOp40
 70
     1
102
RTVSPropertyOp41
 70
     1
102
RTVSPropertyOp42
 70
     1
102
RTVSPropertyOp43
 70
     1
102
RTVSPropertyOp44
 70
     1
102
RTVSPropertyOp45
 70
     1
102
RTVSPropertyOp46
 70
     1
102
RTVSPropertyOp47
 70
     1
102
RTVSPropertyOp48
 70
     1
102
RTVSPropertyOp49
 70
     1
102
RTVSPropertyOp50
 70
     1
102
RTVSPropertyOp51
 70
     0
102
RTVSPropertyOp52
 70
     0
102
RTVSPropertyOp53
 70
     1
102
RTVSPropertyOp54
 70
     1
102
RTVSPropertyOp55
 70
     1
102
RTVSPropertyOp56
 70
     1
102
RTVSPropertyOp57
 70
     1
102
RTVSPost2010Prop28
280
     0
102
RTVSPost2010PropOp28
 70
     1
102
RTVSPost2010Prop29
280
     1
102
RTVSPost2010PropOp29
 70
     1
102
RTVSPost2010Prop30
280
     1
102
RTVSPost2010PropOp30
 70
     1
102
RTVSPost2010Prop31
280
     0
102
RTVSPost2010PropOp31
 70
     1
102
RTVSPost2010Prop32
280
     0
102
RTVSPost2010PropOp32
 70
     1
102
RTVSPost2010Prop33
280
     0
102
RTVSPost2010PropOp33
 70
     1
102
RTVSPost2010Prop34
280
     0
102
RTVSPost2010PropOp34
 70
     1
102
RTVSPost2010Prop35
280
     0
102
RTVSPost2010PropOp35
 70
     1
102
RTVSPost2010Prop36
280
     0
102
RTVSPost2010PropOp36
 70
     1
102
RTVSPost2010Prop37
 90
       50
102
RTVSPost2010PropOp37
 70
     1
102
RTVSPost2010Prop38
140
0.0
102
RTVSPost2010PropOp38
 70
     1
102
RTVSPost2010Prop39
140
1.0
102
RTVSPost2010PropOp39
 70
     1
102
RTVSPost2010Prop40
 90
        0
102
RTVSPost2010PropOp40
 70
     1
102
RTVSPost2010Prop41ColorIndex
 90
       18
102
RTVSPost2010Prop41ColorRGB
 90
        0
102
RTVSPost2010PropOp41
 70
     1
102
RTVSPost2010Prop42
 90
       50
102
RTVSPost2010PropOp42
 70
     1
102
RTVSPost2010Prop43
 90
        3
102
RTVSPost2010PropOp43
 70
     1
102
RTVSPost2010Prop44ColorIndex
 90
        5
102
RTVSPost2010Prop44ColorRGB
 90
      255
102
RTVSPost2010PropOp44
 70
     1
102
RTVSPost2010Prop45
280
     0
102
RTVSPost2010PropOp45
 70
     1
102
RTVSPost2010Prop46
 90
       50
102
RTVSPost2010PropOp46
 70
     1
102
RTVSPost2010Prop47
 90
       50
102
RTVSPost2010PropOp47
 70
     1
102
RTVSPost2010Prop48
 90
       50
102
RTVSPost2010PropOp48
 70
     1
102
RTVSPost2010Prop49
280
     0
102
RTVSPost2010PropOp49
 70
     1
102
RTVSPost2010Prop50
 90
       50
102
RTVSPost2010PropOp50
 70
     1
102
RTVSPost2010Prop51ColorIndex
 90
      256
102
RTVSPost2010Prop51ColorRGB
 90
-16777216
102
RTVSPost2010PropOp51
 70
     0
102
RTVSPost2010Prop52
140
1.0
102
RTVSPost2010PropOp52
 70
     0
102
RTVSPost2010Prop53
 90
        2
102
RTVSPost2010PropOp53
 70
     1
102
RTVSPost2010Prop54
  1
strokes_ogs.tif
102
RTVSPost2010PropOp54
 70
     1
102
RTVSPost2010Prop55
280
     0
102
RTVSPost2010PropOp55
 70
     1
102
RTVSPost2010Prop56
140
1.0
102
RTVSPost2010PropOp56
 70
     1
102
RTVSPost2010Prop57
140
1.0
102
RTVSPost2010PropOp57
 70
     1
  0
XRECORD
  5
95
102
{ACAD_REACTORS
330
94
102
}
330
94
100
AcDbXrecord
280
     1
102
RTVSPropertyOp0
 70
     1
102
RTVSPropertyOp1
 70
     1
102
RTVSPropertyOp2
 70
     1
102
RTVSPropertyOp3
 70
     1
102
RTVSPropertyOp4
 70
     1
102
RTVSPropertyOp5
 70
     1
102
RTVSPropertyOp6
 70
     1
102
RTVSPropertyOp7
 70
     1
102
RTVSPropertyOp8
 70
     1
102
RTVSPropertyOp9
 70
     1
102
RTVSPropertyOp10
 70
     1
102
RTVSPropertyOp11
 70
     1
102
RTVSPropertyOp12
 70
     1
102
RTVSPropertyOp13
 70
     1
102
RTVSPropertyOp14
 70
     1
102
RTVSPropertyOp15
 70
     1
102
RTVSPropertyOp16
 70
     1
102
RTVSPropertyOp17
 70
     1
102
RTVSPropertyOp18
 70
     1
102
RTVSPropertyOp19
 70
     1
102
RTVSPropertyOp20
 70
     1
102
RTVSPropertyOp21
 70
     1
102
RTVSPropertyOp22
 70
     1
102
RTVSPropertyOp23
 70
     1
102
RTVSPropertyOp24
 70
     1
102
RTVSPropertyOp25
 70
     1
102
RTVSPropertyOp26
 70
     1
102
RTVSPropertyOp27
 70
     1
102
RTVSPropertyOp28
 70
     1
102
RTVSPropertyOp29
 70
     1
102
RTVSPropertyOp30
 70
     1
102
RTVSPropertyOp31
 70
     1
102
RTVSPropertyOp32
 70
     1
102
RTVSPropertyOp33
 70
     1
102
RTVSPropertyOp34
 70
     1
102
RTVSPropertyOp35
 70
     1
102
RTVSPropertyOp36
 70
     1
102
RTVSPropertyOp37
 70
     1
102
RTVSPropertyOp38
 70
     1
102
RTVSPropertyOp39
 70
     1
102
RTVSPropertyOp40
 70
     1
102
RTVSPropertyOp41
 70
     1
102
RTVSPropertyOp42
 70
     1
102
RTVSPropertyOp43
 70
     1
102
RTVSPropertyOp44
 70
     1
102
RTVSPropertyOp45
 70
     1
102
RTVSPropertyOp46
 70
     1
102
RTVSPropertyOp47
 70
     1
102
RTVSPropertyOp48
 70
     1
102
RTVSPropertyOp49
 70
     1
102
RTVSPropertyOp50
 70
     1
102
RTVSPropertyOp51
 70
     0
102
RTVSPropertyOp52
 70
     0
102
RTVSPropertyOp53
 70
     1
102
RTVSPropertyOp54
 70
     1
102
RTVSPropertyOp55
 70
     1
102
RTVSPropertyOp56
 70
     1
102
RTVSPropertyOp57
 70
     1
102
RTVSPost2010Prop28
280
     0
102
RTVSPost2010PropOp28
 70
     1
102
RTVSPost2010Prop29
280
     1
102
RTVSPost2010PropOp29
 70
     1
102
RTVSPost2010Prop30
280
     1
102
RTVSPost2010PropOp30
 70
     1
102
RTVSPost2010Prop31
280
     0
102
RTVSPost2010PropOp31
 70
     1
102
RTVSPost2010Prop32
280
     0
102
RTVSPost2010PropOp32
 70
     1
102
RTVSPost2010Prop33
280
     0
102
RTVSPost2010PropOp33
 70
     1
102
RTVSPost2010Prop34
280
     0
102
RTVSPost2010PropOp34
 70
     1
102
RTVSPost2010Prop35
280
     0
102
RTVSPost2010PropOp35
 70
     1
102
RTVSPost2010Prop36
280
     0
102
RTVSPost2010PropOp36
 70
     1
102
RTVSPost2010Prop37
 90
       50
102
RTVSPost2010PropOp37
 70
     1
102
RTVSPost2010Prop38
140
0.0
102
RTVSPost2010PropOp38
 70
     1
102
RTVSPost2010Prop39
140
1.0
102
RTVSPost2010PropOp39
 70
     1
102
RTVSPost2010Prop40
 90
        0
102
RTVSPost2010PropOp40
 70
     1
102
RTVSPost2010Prop41ColorIndex
 90
       18
102
RTVSPost2010Prop41ColorRGB
 90
        0
102
RTVSPost2010PropOp41
 70
     1
102
RTVSPost2010Prop42
 90
       50
102
RTVSPost2010PropOp42
 70
     1
102
RTVSPost2010Prop43
 90
        3
102
RTVSPost2010PropOp43
 70
     1
102
RTVSPost2010Prop44ColorIndex
 90
        5
102
RTVSPost2010Prop44ColorRGB
 90
      255
102
RTVSPost2010PropOp44
 70
     1
102
RTVSPost2010Prop45
280
     0
102
RTVSPost2010PropOp45
 70
     1
102
RTVSPost2010Prop46
 90
       50
102
RTVSPost2010PropOp46
 70
     1
102
RTVSPost2010Prop47
 90
       50
102
RTVSPost2010PropOp47
 70
     1
102
RTVSPost2010Prop48
 90
       50
102
RTVSPost2010PropOp48
 70
     1
102
RTVSPost2010Prop49
280
     0
102
RTVSPost2010PropOp49
 70
     1
102
RTVSPost2010Prop50
 90
       50
102
RTVSPost2010PropOp50
 70
     1
102
RTVSPost2010Prop51ColorIndex
 90
      256
102
RTVSPost2010Prop51ColorRGB
 90
-16777216
102
RTVSPost2010PropOp51
 70
     0
102
RTVSPost2010Prop52
140
1.0
102
RTVSPost2010PropOp52
 70
     0
102
RTVSPost2010Prop53
 90
        2
102
RTVSPost2010PropOp53
 70
     1
102
RTVSPost2010Prop54
  1
strokes_ogs.tif
102
RTVSPost2010PropOp54
 70
     1
102
RTVSPost2010Prop55
280
     0
102
RTVSPost2010PropOp55
 70
     1
102
RTVSPost2010Prop56
140
1.0
102
RTVSPost2010PropOp56
 70
     1
102
RTVSPost2010Prop57
140
1.0
102
RTVSPost2010PropOp57
 70
     1
  0
XRECORD
  5
9B
102
{ACAD_REACTORS
330
9A
102
}
330
9A
100
AcDbXrecord
280
     1
102
RTVSPropertyOp0
 70
     1
102
RTVSPropertyOp1
 70
     1
102
RTVSPropertyOp2
 70
     1
102
RTVSPropertyOp3
 70
     1
102
RTVSPropertyOp4
 70
     1
102
RTVSPropertyOp5
 70
     1
102
RTVSPropertyOp6
 70
     1
102
RTVSPropertyOp7
 70
     1
102
RTVSPropertyOp8
 70
     1
102
RTVSPropertyOp9
 70
     1
102
RTVSPropertyOp10
 70
     1
102
RTVSPropertyOp11
 70
     1
102
RTVSPropertyOp12
 70
     1
102
RTVSPropertyOp13
 70
     1
102
RTVSPropertyOp14
 70
     1
102
RTVSPropertyOp15
 70
     1
102
RTVSPropertyOp16
 70
     1
102
RTVSPropertyOp17
 70
     1
102
RTVSPropertyOp18
 70
     1
102
RTVSPropertyOp19
 70
     1
102
RTVSPropertyOp20
 70
     1
102
RTVSPropertyOp21
 70
     1
102
RTVSPropertyOp22
 70
     1
102
RTVSPropertyOp23
 70
     1
102
RTVSPropertyOp24
 70
     1
102
RTVSPropertyOp25
 70
     1
102
RTVSPropertyOp26
 70
     1
102
RTVSPropertyOp27
 70
     1
102
RTVSPropertyOp28
 70
     1
102
RTVSPropertyOp29
 70
     1
102
RTVSPropertyOp30
 70
     1
102
RTVSPropertyOp31
 70
     1
102
RTVSPropertyOp32
 70
     1
102
RTVSPropertyOp33
 70
     1
102
RTVSPropertyOp34
 70
     1
102
RTVSPropertyOp35
 70
     1
102
RTVSPropertyOp36
 70
     1
102
RTVSPropertyOp37
 70
     1
102
RTVSPropertyOp38
 70
     1
102
RTVSPropertyOp39
 70
     1
102
RTVSPropertyOp40
 70
     1
102
RTVSPropertyOp41
 70
     1
102
RTVSPropertyOp42
 70
     1
102
RTVSPropertyOp43
 70
     1
102
RTVSPropertyOp44
 70
     1
102
RTVSPropertyOp45
 70
     1
102
RTVSPropertyOp46
 70
     1
102
RTVSPropertyOp47
 70
     1
102
RTVSPropertyOp48
 70
     1
102
RTVSPropertyOp49
 70
     1
102
RTVSPropertyOp50
 70
     1
102
RTVSPropertyOp51
 70
     0
102
RTVSPropertyOp52
 70
     0
102
RTVSPropertyOp53
 70
     1
102
RTVSPropertyOp54
 70
     1
102
RTVSPropertyOp55
 70
     1
102
RTVSPropertyOp56
 70
     1
102
RTVSPropertyOp57
 70
     1
102
RTVSPost2010Prop28
280
     0
102
RTVSPost2010PropOp28
 70
     1
102
RTVSPost2010Prop29
280
     1
102
RTVSPost2010PropOp29
 70
     1
102
RTVSPost2010Prop30
280
     1
102
RTVSPost2010PropOp30
 70
     1
102
RTVSPost2010Prop31
280
     0
102
RTVSPost2010PropOp31
 70
     1
102
RTVSPost2010Prop32
280
     0
102
RTVSPost2010PropOp32
 70
     1
102
RTVSPost2010Prop33
280
     0
102
RTVSPost2010PropOp33
 70
     1
102
RTVSPost2010Prop34
280
     0
102
RTVSPost2010PropOp34
 70
     1
102
RTVSPost2010Prop35
280
     0
102
RTVSPost2010PropOp35
 70
     1
102
RTVSPost2010Prop36
280
     0
102
RTVSPost2010PropOp36
 70
     1
102
RTVSPost2010Prop37
 90
       50
102
RTVSPost2010PropOp37
 70
     1
102
RTVSPost2010Prop38
140
0.0
102
RTVSPost2010PropOp38
 70
     1
102
RTVSPost2010Prop39
140
1.0
102
RTVSPost2010PropOp39
 70
     1
102
RTVSPost2010Prop40
 90
        0
102
RTVSPost2010PropOp40
 70
     1
102
RTVSPost2010Prop41ColorIndex
 90
       18
102
RTVSPost2010Prop41ColorRGB
 90
        0
102
RTVSPost2010PropOp41
 70
     1
102
RTVSPost2010Prop42
 90
       50
102
RTVSPost2010PropOp42
 70
     1
102
RTVSPost2010Prop43
 90
        3
102
RTVSPost2010PropOp43
 70
     1
102
RTVSPost2010Prop44ColorIndex
 90
        5
102
RTVSPost2010Prop44ColorRGB
 90
      255
102
RTVSPost2010PropOp44
 70
     1
102
RTVSPost2010Prop45
280
     0
102
RTVSPost2010PropOp45
 70
     1
102
RTVSPost2010Prop46
 90
       50
102
RTVSPost2010PropOp46
 70
     1
102
RTVSPost2010Prop47
 90
       50
102
RTVSPost2010PropOp47
 70
     1
102
RTVSPost2010Prop48
 90
       50
102
RTVSPost2010PropOp48
 70
     1
102
RTVSPost2010Prop49
280
     0
102
RTVSPost2010PropOp49
 70
     1
102
RTVSPost2010Prop50
 90
       50
102
RTVSPost2010PropOp50
 70
     1
102
RTVSPost2010Prop51ColorIndex
 90
      256
102
RTVSPost2010Prop51ColorRGB
 90
-16777216
102
RTVSPost2010PropOp51
 70
     0
102
RTVSPost2010Prop52
140
1.0
102
RTVSPost2010PropOp52
 70
     0
102
RTVSPost2010Prop53
 90
        2
102
RTVSPost2010PropOp53
 70
     1
102
RTVSPost2010Prop54
  1
strokes_ogs.tif
102
RTVSPost2010PropOp54
 70
     1
102
RTVSPost2010Prop55
280
     0
102
RTVSPost2010PropOp55
 70
     1
102
RTVSPost2010Prop56
140
1.0
102
RTVSPost2010PropOp56
 70
     1
102
RTVSPost2010Prop57
140
1.0
102
RTVSPost2010PropOp57
 70
     1
  0
XRECORD
  5
AF
102
{ACAD_REACTORS
330
AE
102
}
330
AE
100
AcDbXrecord
280
     1
102
RTVSPropertyOp0
 70
     0
102
RTVSPropertyOp1
 70
     0
102
RTVSPropertyOp2
 70
     0
102
RTVSPropertyOp3
 70
     0
102
RTVSPropertyOp4
 70
     0
102
RTVSPropertyOp5
 70
     0
102
RTVSPropertyOp6
 70
     0
102
RTVSPropertyOp7
 70
     0
102
RTVSPropertyOp8
 70
     0
102
RTVSPropertyOp9
 70
     0
102
RTVSPropertyOp10
 70
     0
102
RTVSPropertyOp11
 70
     0
102
RTVSPropertyOp12
 70
     0
102
RTVSPropertyOp13
 70
     0
102
RTVSPropertyOp14
 70
     2
102
RTVSPropertyOp15
 70
     0
102
RTVSPropertyOp16
 70
     0
102
RTVSPropertyOp17
 70
     0
102
RTVSPropertyOp18
 70
     0
102
RTVSPropertyOp19
 70
     0
102
RTVSPropertyOp20
 70
     0
102
RTVSPropertyOp21
 70
     0
102
RTVSPropertyOp22
 70
     0
102
RTVSPropertyOp23
 70
     0
102
RTVSPropertyOp24
 70
     0
102
RTVSPropertyOp25
 70
     0
102
RTVSPropertyOp26
 70
     0
102
RTVSPropertyOp27
 70
     0
102
RTVSPropertyOp28
 70
     0
102
RTVSPropertyOp29
 70
     0
102
RTVSPropertyOp30
 70
     0
102
RTVSPropertyOp31
 70
     0
102
RTVSPropertyOp32
 70
     0
102
RTVSPropertyOp33
 70
     0
102
RTVSPropertyOp34
 70
     0
102
RTVSPropertyOp35
 70
     0
102
RTVSPropertyOp36
 70
     0
102
RTVSPropertyOp37
 70
     0
102
RTVSPropertyOp38
 70
     0
102
RTVSPropertyOp39
 70
     0
102
RTVSPropertyOp40
 70
     0
102
RTVSPropertyOp41
 70
     0
102
RTVSPropertyOp42
 70
     0
102
RTVSPropertyOp43
 70
     0
102
RTVSPropertyOp44
 70
     0
102
RTVSPropertyOp45
 70
     0
102
RTVSPropertyOp46
 70
     0
102
RTVSPropertyOp47
 70
     0
102
RTVSPropertyOp48
 70
     0
102
RTVSPropertyOp49
 70
     0
102
RTVSPropertyOp50
 70
     0
102
RTVSPropertyOp51
 70
     0
102
RTVSPropertyOp52
 70
     0
102
RTVSPropertyOp53
 70
     0
102
RTVSPropertyOp54
 70
     0
102
RTVSPropertyOp55
 70
     0
102
RTVSPropertyOp56
 70
     0
102
RTVSPropertyOp57
 70
     0
102
RTVSPost2010Prop28
280
     0
102
RTVSPost2010PropOp28
 70
     0
102
RTVSPost2010Prop29
280
     1
102
RTVSPost2010PropOp29
 70
     0
102
RTVSPost2010Prop30
280
     1
102
RTVSPost2010PropOp30
 70
     0
102
RTVSPost2010Prop31
280
     0
102
RTVSPost2010PropOp31
 70
     0
102
RTVSPost2010Prop32
280
     0
102
RTVSPost2010PropOp32
 70
     0
102
RTVSPost2010Prop33
280
     0
102
RTVSPost2010PropOp33
 70
     0
102
RTVSPost2010Prop34
280
     0
102
RTVSPost2010PropOp34
 70
     0
102
RTVSPost2010Prop35
280
     0
102
RTVSPost2010PropOp35
 70
     0
102
RTVSPost2010Prop36
280
     0
102
RTVSPost2010PropOp36
 70
     0
102
RTVSPost2010Prop37
 90
       50
102
RTVSPost2010PropOp37
 70
     0
102
RTVSPost2010Prop38
140
0.0
102
RTVSPost2010PropOp38
 70
     0
102
RTVSPost2010Prop39
140
1.0
102
RTVSPost2010PropOp39
 70
     0
102
RTVSPost2010Prop40
 90
        0
102
RTVSPost2010PropOp40
 70
     0
102
RTVSPost2010Prop41ColorIndex
 90
       18
102
RTVSPost2010Prop41ColorRGB
 90
        0
102
RTVSPost2010PropOp41
 70
     0
102
RTVSPost2010Prop42
 90
       50
102
RTVSPost2010PropOp42
 70
     0
102
RTVSPost2010Prop43
 90
        3
102
RTVSPost2010PropOp43
 70
     0
102
RTVSPost2010Prop44ColorIndex
 90
        5
102
RTVSPost2010Prop44ColorRGB
 90
      255
102
RTVSPost2010PropOp44
 70
     0
102
RTVSPost2010Prop45
280
     0
102
RTVSPost2010PropOp45
 70
     0
102
RTVSPost2010Prop46
 90
       50
102
RTVSPost2010PropOp46
 70
     0
102
RTVSPost2010Prop47
 90
       50
102
RTVSPost2010PropOp47
 70
     0
102
RTVSPost2010Prop48
 90
       50
102
RTVSPost2010PropOp48
 70
     0
102
RTVSPost2010Prop49
280
     0
102
RTVSPost2010PropOp49
 70
     0
102
RTVSPost2010Prop50
 90
       50
102
RTVSPost2010PropOp50
 70
     0
102
RTVSPost2010Prop51ColorIndex
 90
      256
102
RTVSPost2010Prop51ColorRGB
 90
-16777216
102
RTVSPost2010PropOp51
 70
     0
102
RTVSPost2010Prop52
140
1.0
102
RTVSPost2010PropOp52
 70
     0
102
RTVSPost2010Prop53
 90
        2
102
RTVSPost2010PropOp53
 70
     0
102
RTVSPost2010Prop54
  1
strokes_ogs.tif
102
RTVSPost2010PropOp54
 70
     0
102
RTVSPost2010Prop55
280
     0
102
RTVSPost2010PropOp55
 70
     0
102
RTVSPost2010Prop56
140
1.0
102
RTVSPost2010PropOp56
 70
     0
102
RTVSPost2010Prop57
140
1.0
102
RTVSPost2010PropOp57
 70
     0
  0
XRECORD
  5
A9
102
{ACAD_REACTORS
330
A8
102
}
330
A8
100
AcDbXrecord
280
     1
102
RTVSPropertyOp0
 70
     1
102
RTVSPropertyOp1
 70
     1
102
RTVSPropertyOp2
 70
     1
102
RTVSPropertyOp3
 70
     1
102
RTVSPropertyOp4
 70
     1
102
RTVSPropertyOp5
 70
     1
102
RTVSPropertyOp6
 70
     1
102
RTVSPropertyOp7
 70
     1
102
RTVSPropertyOp8
 70
     1
102
RTVSPropertyOp9
 70
     1
102
RTVSPropertyOp10
 70
     1
102
RTVSPropertyOp11
 70
     1
102
RTVSPropertyOp12
 70
     1
102
RTVSPropertyOp13
 70
     1
102
RTVSPropertyOp14
 70
     1
102
RTVSPropertyOp15
 70
     1
102
RTVSPropertyOp16
 70
     1
102
RTVSPropertyOp17
 70
     1
102
RTVSPropertyOp18
 70
     1
102
RTVSPropertyOp19
 70
     1
102
RTVSPropertyOp20
 70
     1
102
RTVSPropertyOp21
 70
     1
102
RTVSPropertyOp22
 70
     1
102
RTVSPropertyOp23
 70
     1
102
RTVSPropertyOp24
 70
     1
102
RTVSPropertyOp25
 70
     1
102
RTVSPropertyOp26
 70
     1
102
RTVSPropertyOp27
 70
     1
102
RTVSPropertyOp28
 70
     1
102
RTVSPropertyOp29
 70
     1
102
RTVSPropertyOp30
 70
     1
102
RTVSPropertyOp31
 70
     1
102
RTVSPropertyOp32
 70
     1
102
RTVSPropertyOp33
 70
     1
102
RTVSPropertyOp34
 70
     1
102
RTVSPropertyOp35
 70
     1
102
RTVSPropertyOp36
 70
     1
102
RTVSPropertyOp37
 70
     1
102
RTVSPropertyOp38
 70
     1
102
RTVSPropertyOp39
 70
     1
102
RTVSPropertyOp40
 70
     1
102
RTVSPropertyOp41
 70
     1
102
RTVSPropertyOp42
 70
     1
102
RTVSPropertyOp43
 70
     1
102
RTVSPropertyOp44
 70
     1
102
RTVSPropertyOp45
 70
     1
102
RTVSPropertyOp46
 70
     1
102
RTVSPropertyOp47
 70
     1
102
RTVSPropertyOp48
 70
     1
102
RTVSPropertyOp49
 70
     1
102
RTVSPropertyOp50
 70
     1
102
RTVSPropertyOp51
 70
     0
102
RTVSPropertyOp52
 70
     0
102
RTVSPropertyOp53
 70
     1
102
RTVSPropertyOp54
 70
     1
102
RTVSPropertyOp55
 70
     1
102
RTVSPropertyOp56
 70
     1
102
RTVSPropertyOp57
 70
     1
102
RTVSPost2010Prop28
280
     0
102
RTVSPost2010PropOp28
 70
     1
102
RTVSPost2010Prop29
280
     1
102
RTVSPost2010PropOp29
 70
     1
102
RTVSPost2010Prop30
280
     1
102
RTVSPost2010PropOp30
 70
     1
102
RTVSPost2010Prop31
280
     0
102
RTVSPost2010PropOp31
 70
     1
102
RTVSPost2010Prop32
280
     0
102
RTVSPost2010PropOp32
 70
     1
102
RTVSPost2010Prop33
280
     0
102
RTVSPost2010PropOp33
 70
     1
102
RTVSPost2010Prop34
280
     0
102
RTVSPost2010PropOp34
 70
     1
102
RTVSPost2010Prop35
280
     0
102
RTVSPost2010PropOp35
 70
     1
102
RTVSPost2010Prop36
280
     0
102
RTVSPost2010PropOp36
 70
     1
102
RTVSPost2010Prop37
 90
       50
102
RTVSPost2010PropOp37
 70
     1
102
RTVSPost2010Prop38
140
0.0
102
RTVSPost2010PropOp38
 70
     1
102
RTVSPost2010Prop39
140
1.0
102
RTVSPost2010PropOp39
 70
     1
102
RTVSPost2010Prop40
 90
        0
102
RTVSPost2010PropOp40
 70
     1
102
RTVSPost2010Prop41ColorIndex
 90
       18
102
RTVSPost2010Prop41ColorRGB
 90
        0
102
RTVSPost2010PropOp41
 70
     1
102
RTVSPost2010Prop42
 90
       50
102
RTVSPost2010PropOp42
 70
     1
102
RTVSPost2010Prop43
 90
        3
102
RTVSPost2010PropOp43
 70
     1
102
RTVSPost2010Prop44ColorIndex
 90
        5
102
RTVSPost2010Prop44ColorRGB
 90
      255
102
RTVSPost2010PropOp44
 70
     1
102
RTVSPost2010Prop45
280
     0
102
RTVSPost2010PropOp45
 70
     1
102
RTVSPost2010Prop46
 90
       50
102
RTVSPost2010PropOp46
 70
     1
102
RTVSPost2010Prop47
 90
       50
102
RTVSPost2010PropOp47
 70
     1
102
RTVSPost2010Prop48
 90
       50
102
RTVSPost2010PropOp48
 70
     1
102
RTVSPost2010Prop49
280
     0
102
RTVSPost2010PropOp49
 70
     1
102
RTVSPost2010Prop50
 90
       50
102
RTVSPost2010PropOp50
 70
     1
102
RTVSPost2010Prop51ColorIndex
 90
      256
102
RTVSPost2010Prop51ColorRGB
 90
-16777216
102
RTVSPost2010PropOp51
 70
     0
102
RTVSPost2010Prop52
140
1.0
102
RTVSPost2010PropOp52
 70
     0
102
RTVSPost2010Prop53
 90
        2
102
RTVSPost2010PropOp53
 70
     1
102
RTVSPost2010Prop54
  1
strokes_ogs.tif
102
RTVSPost2010PropOp54
 70
     1
102
RTVSPost2010Prop55
280
     0
102
RTVSPost2010PropOp55
 70
     1
102
RTVSPost2010Prop56
140
1.0
102
RTVSPost2010PropOp56
 70
     1
102
RTVSPost2010Prop57
140
1.0
102
RTVSPost2010PropOp57
 70
     1
  0
XRECORD
  5
B1
102
{ACAD_REACTORS
330
B0
102
}
330
B0
100
AcDbXrecord
280
     1
102
RTVSPropertyOp0
 70
     0
102
RTVSPropertyOp1
 70
     0
102
RTVSPropertyOp2
 70
     0
102
RTVSPropertyOp3
 70
     0
102
RTVSPropertyOp4
 70
     0
102
RTVSPropertyOp5
 70
     0
102
RTVSPropertyOp6
 70
     0
102
RTVSPropertyOp7
 70
     0
102
RTVSPropertyOp8
 70
     0
102
RTVSPropertyOp9
 70
     0
102
RTVSPropertyOp10
 70
     0
102
RTVSPropertyOp11
 70
     0
102
RTVSPropertyOp12
 70
     0
102
RTVSPropertyOp13
 70
     0
102
RTVSPropertyOp14
 70
     2
102
RTVSPropertyOp15
 70
     0
102
RTVSPropertyOp16
 70
     0
102
RTVSPropertyOp17
 70
     0
102
RTVSPropertyOp18
 70
     0
102
RTVSPropertyOp19
 70
     0
102
RTVSPropertyOp20
 70
     0
102
RTVSPropertyOp21
 70
     0
102
RTVSPropertyOp22
 70
     0
102
RTVSPropertyOp23
 70
     0
102
RTVSPropertyOp24
 70
     0
102
RTVSPropertyOp25
 70
     0
102
RTVSPropertyOp26
 70
     0
102
RTVSPropertyOp27
 70
     0
102
RTVSPropertyOp28
 70
     0
102
RTVSPropertyOp29
 70
     0
102
RTVSPropertyOp30
 70
     0
102
RTVSPropertyOp31
 70
     0
102
RTVSPropertyOp32
 70
     0
102
RTVSPropertyOp33
 70
     0
102
RTVSPropertyOp34
 70
     0
102
RTVSPropertyOp35
 70
     0
102
RTVSPropertyOp36
 70
     0
102
RTVSPropertyOp37
 70
     0
102
RTVSPropertyOp38
 70
     0
102
RTVSPropertyOp39
 70
     0
102
RTVSPropertyOp40
 70
     0
102
RTVSPropertyOp41
 70
     0
102
RTVSPropertyOp42
 70
     0
102
RTVSPropertyOp43
 70
     0
102
RTVSPropertyOp44
 70
     0
102
RTVSPropertyOp45
 70
     0
102
RTVSPropertyOp46
 70
     0
102
RTVSPropertyOp47
 70
     0
102
RTVSPropertyOp48
 70
     0
102
RTVSPropertyOp49
 70
     0
102
RTVSPropertyOp50
 70
     0
102
RTVSPropertyOp51
 70
     0
102
RTVSPropertyOp52
 70
     0
102
RTVSPropertyOp53
 70
     0
102
RTVSPropertyOp54
 70
     0
102
RTVSPropertyOp55
 70
     0
102
RTVSPropertyOp56
 70
     0
102
RTVSPropertyOp57
 70
     0
102
RTVSPost2010Prop28
280
     0
102
RTVSPost2010PropOp28
 70
     0
102
RTVSPost2010Prop29
280
     1
102
RTVSPost2010PropOp29
 70
     0
102
RTVSPost2010Prop30
280
     1
102
RTVSPost2010PropOp30
 70
     0
102
RTVSPost2010Prop31
280
     0
102
RTVSPost2010PropOp31
 70
     0
102
RTVSPost2010Prop32
280
     0
102
RTVSPost2010PropOp32
 70
     0
102
RTVSPost2010Prop33
280
     0
102
RTVSPost2010PropOp33
 70
     0
102
RTVSPost2010Prop34
280
     0
102
RTVSPost2010PropOp34
 70
     0
102
RTVSPost2010Prop35
280
     0
102
RTVSPost2010PropOp35
 70
     0
102
RTVSPost2010Prop36
280
     0
102
RTVSPost2010PropOp36
 70
     0
102
RTVSPost2010Prop37
 90
       50
102
RTVSPost2010PropOp37
 70
     0
102
RTVSPost2010Prop38
140
0.0
102
RTVSPost2010PropOp38
 70
     0
102
RTVSPost2010Prop39
140
1.0
102
RTVSPost2010PropOp39
 70
     0
102
RTVSPost2010Prop40
 90
        0
102
RTVSPost2010PropOp40
 70
     0
102
RTVSPost2010Prop41ColorIndex
 90
       18
102
RTVSPost2010Prop41ColorRGB
 90
        0
102
RTVSPost2010PropOp41
 70
     0
102
RTVSPost2010Prop42
 90
       50
102
RTVSPost2010PropOp42
 70
     0
102
RTVSPost2010Prop43
 90
        3
102
RTVSPost2010PropOp43
 70
     0
102
RTVSPost2010Prop44ColorIndex
 90
        5
102
RTVSPost2010Prop44ColorRGB
 90
      255
102
RTVSPost2010PropOp44
 70
     0
102
RTVSPost2010Prop45
280
     0
102
RTVSPost2010PropOp45
 70
     0
102
RTVSPost2010Prop46
 90
       50
102
RTVSPost2010PropOp46
 70
     0
102
RTVSPost2010Prop47
 90
       50
102
RTVSPost2010PropOp47
 70
     0
102
RTVSPost2010Prop48
 90
       50
102
RTVSPost2010PropOp48
 70
     0
102
RTVSPost2010Prop49
280
     0
102
RTVSPost2010PropOp49
 70
     0
102
RTVSPost2010Prop50
 90
       50
102
RTVSPost2010PropOp50
 70
     0
102
RTVSPost2010Prop51ColorIndex
 90
      256
102
RTVSPost2010Prop51ColorRGB
 90
-16777216
102
RTVSPost2010PropOp51
 70
     0
102
RTVSPost2010Prop52
140
1.0
102
RTVSPost2010PropOp52
 70
     0
102
RTVSPost2010Prop53
 90
        2
102
RTVSPost2010PropOp53
 70
     0
102
RTVSPost2010Prop54
  1
strokes_ogs.tif
102
RTVSPost2010PropOp54
 70
     0
102
RTVSPost2010Prop55
280
     0
102
RTVSPost2010PropOp55
 70
     0
102
RTVSPost2010Prop56
140
1.0
102
RTVSPost2010PropOp56
 70
     0
102
RTVSPost2010Prop57
140
1.0
102
RTVSPost2010PropOp57
 70
     0
  0
XRECORD
  5
9F
102
{ACAD_REACTORS
330
9E
102
}
330
9E
100
AcDbXrecord
280
     1
102
RTVSPropertyOp0
 70
     1
102
RTVSPropertyOp1
 70
     1
102
RTVSPropertyOp2
 70
     1
102
RTVSPropertyOp3
 70
     1
102
RTVSPropertyOp4
 70
     1
102
RTVSPropertyOp5
 70
     1
102
RTVSPropertyOp6
 70
     1
102
RTVSPropertyOp7
 70
     1
102
RTVSPropertyOp8
 70
     1
102
RTVSPropertyOp9
 70
     1
102
RTVSPropertyOp10
 70
     1
102
RTVSPropertyOp11
 70
     1
102
RTVSPropertyOp12
 70
     1
102
RTVSPropertyOp13
 70
     1
102
RTVSPropertyOp14
 70
     1
102
RTVSPropertyOp15
 70
     1
102
RTVSPropertyOp16
 70
     1
102
RTVSPropertyOp17
 70
     1
102
RTVSPropertyOp18
 70
     1
102
RTVSPropertyOp19
 70
     1
102
RTVSPropertyOp20
 70
     1
102
RTVSPropertyOp21
 70
     1
102
RTVSPropertyOp22
 70
     1
102
RTVSPropertyOp23
 70
     1
102
RTVSPropertyOp24
 70
     1
102
RTVSPropertyOp25
 70
     1
102
RTVSPropertyOp26
 70
     1
102
RTVSPropertyOp27
 70
     1
102
RTVSPropertyOp28
 70
     1
102
RTVSPropertyOp29
 70
     1
102
RTVSPropertyOp30
 70
     1
102
RTVSPropertyOp31
 70
     1
102
RTVSPropertyOp32
 70
     1
102
RTVSPropertyOp33
 70
     1
102
RTVSPropertyOp34
 70
     1
102
RTVSPropertyOp35
 70
     1
102
RTVSPropertyOp36
 70
     1
102
RTVSPropertyOp37
 70
     1
102
RTVSPropertyOp38
 70
     1
102
RTVSPropertyOp39
 70
     1
102
RTVSPropertyOp40
 70
     1
102
RTVSPropertyOp41
 70
     1
102
RTVSPropertyOp42
 70
     1
102
RTVSPropertyOp43
 70
     1
102
RTVSPropertyOp44
 70
     1
102
RTVSPropertyOp45
 70
     1
102
RTVSPropertyOp46
 70
     1
102
RTVSPropertyOp47
 70
     1
102
RTVSPropertyOp48
 70
     1
102
RTVSPropertyOp49
 70
     1
102
RTVSPropertyOp50
 70
     1
102
RTVSPropertyOp51
 70
     0
102
RTVSPropertyOp52
 70
     0
102
RTVSPropertyOp53
 70
     1
102
RTVSPropertyOp54
 70
     1
102
RTVSPropertyOp55
 70
     1
102
RTVSPropertyOp56
 70
     1
102
RTVSPropertyOp57
 70
     1
102
RTVSPost2010Prop28
280
     0
102
RTVSPost2010PropOp28
 70
     1
102
RTVSPost2010Prop29
280
     1
102
RTVSPost2010PropOp29
 70
     1
102
RTVSPost2010Prop30
280
     1
102
RTVSPost2010PropOp30
 70
     1
102
RTVSPost2010Prop31
280
     0
102
RTVSPost2010PropOp31
 70
     1
102
RTVSPost2010Prop32
280
     0
102
RTVSPost2010PropOp32
 70
     1
102
RTVSPost2010Prop33
280
     0
102
RTVSPost2010PropOp33
 70
     1
102
RTVSPost2010Prop34
280
     0
102
RTVSPost2010PropOp34
 70
     1
102
RTVSPost2010Prop35
280
     0
102
RTVSPost2010PropOp35
 70
     1
102
RTVSPost2010Prop36
280
     0
102
RTVSPost2010PropOp36
 70
     1
102
RTVSPost2010Prop37
 90
       50
102
RTVSPost2010PropOp37
 70
     1
102
RTVSPost2010Prop38
140
0.0
102
RTVSPost2010PropOp38
 70
     1
102
RTVSPost2010Prop39
140
1.0
102
RTVSPost2010PropOp39
 70
     1
102
RTVSPost2010Prop40
 90
        0
102
RTVSPost2010PropOp40
 70
     1
102
RTVSPost2010Prop41ColorIndex
 90
       18
102
RTVSPost2010Prop41ColorRGB
 90
        0
102
RTVSPost2010PropOp41
 70
     1
102
RTVSPost2010Prop42
 90
       50
102
RTVSPost2010PropOp42
 70
     1
102
RTVSPost2010Prop43
 90
        3
102
RTVSPost2010PropOp43
 70
     1
102
RTVSPost2010Prop44ColorIndex
 90
        5
102
RTVSPost2010Prop44ColorRGB
 90
      255
102
RTVSPost2010PropOp44
 70
     1
102
RTVSPost2010Prop45
280
     0
102
RTVSPost2010PropOp45
 70
     1
102
RTVSPost2010Prop46
 90
       50
102
RTVSPost2010PropOp46
 70
     1
102
RTVSPost2010Prop47
 90
       50
102
RTVSPost2010PropOp47
 70
     1
102
RTVSPost2010Prop48
 90
       50
102
RTVSPost2010PropOp48
 70
     1
102
RTVSPost2010Prop49
280
     0
102
RTVSPost2010PropOp49
 70
     1
102
RTVSPost2010Prop50
 90
       50
102
RTVSPost2010PropOp50
 70
     1
102
RTVSPost2010Prop51ColorIndex
 90
      256
102
RTVSPost2010Prop51ColorRGB
 90
-16777216
102
RTVSPost2010PropOp51
 70
     0
102
RTVSPost2010Prop52
140
1.0
102
RTVSPost2010PropOp52
 70
     0
102
RTVSPost2010Prop53
 90
        2
102
RTVSPost2010PropOp53
 70
     1
102
RTVSPost2010Prop54
  1
strokes_ogs.tif
102
RTVSPost2010PropOp54
 70
     1
102
RTVSPost2010Prop55
280
     0
102
RTVSPost2010PropOp55
 70
     1
102
RTVSPost2010Prop56
140
1.0
102
RTVSPost2010PropOp56
 70
     1
102
RTVSPost2010Prop57
140
1.0
102
RTVSPost2010PropOp57
 70
     1
  0
XRECORD
  5
BD
102
{ACAD_REACTORS
330
BC
102
}
330
BC
100
AcDbXrecord
280
     1
102
RTVSPropertyOp0
 70
     1
102
RTVSPropertyOp1
 70
     1
102
RTVSPropertyOp2
 70
     1
102
RTVSPropertyOp3
 70
     1
102
RTVSPropertyOp4
 70
     1
102
RTVSPropertyOp5
 70
     1
102
RTVSPropertyOp6
 70
     1
102
RTVSPropertyOp7
 70
     1
102
RTVSPropertyOp8
 70
     1
102
RTVSPropertyOp9
 70
     1
102
RTVSPropertyOp10
 70
     1
102
RTVSPropertyOp11
 70
     1
102
RTVSPropertyOp12
 70
     1
102
RTVSPropertyOp13
 70
     1
102
RTVSPropertyOp14
 70
     1
102
RTVSPropertyOp15
 70
     1
102
RTVSPropertyOp16
 70
     1
102
RTVSPropertyOp17
 70
     1
102
RTVSPropertyOp18
 70
     1
102
RTVSPropertyOp19
 70
     1
102
RTVSPropertyOp20
 70
     1
102
RTVSPropertyOp21
 70
     1
102
RTVSPropertyOp22
 70
     1
102
RTVSPropertyOp23
 70
     1
102
RTVSPropertyOp24
 70
     1
102
RTVSPropertyOp25
 70
     1
102
RTVSPropertyOp26
 70
     1
102
RTVSPropertyOp27
 70
     1
102
RTVSPropertyOp28
 70
     1
102
RTVSPropertyOp29
 70
     1
102
RTVSPropertyOp30
 70
     1
102
RTVSPropertyOp31
 70
     1
102
RTVSPropertyOp32
 70
     1
102
RTVSPropertyOp33
 70
     1
102
RTVSPropertyOp34
 70
     1
102
RTVSPropertyOp35
 70
     1
102
RTVSPropertyOp36
 70
     1
102
RTVSPropertyOp37
 70
     1
102
RTVSPropertyOp38
 70
     1
102
RTVSPropertyOp39
 70
     1
102
RTVSPropertyOp40
 70
     1
102
RTVSPropertyOp41
 70
     1
102
RTVSPropertyOp42
 70
     1
102
RTVSPropertyOp43
 70
     1
102
RTVSPropertyOp44
 70
     1
102
RTVSPropertyOp45
 70
     1
102
RTVSPropertyOp46
 70
     1
102
RTVSPropertyOp47
 70
     1
102
RTVSPropertyOp48
 70
     1
102
RTVSPropertyOp49
 70
     1
102
RTVSPropertyOp50
 70
     1
102
RTVSPropertyOp51
 70
     0
102
RTVSPropertyOp52
 70
     0
102
RTVSPropertyOp53
 70
     1
102
RTVSPropertyOp54
 70
     1
102
RTVSPropertyOp55
 70
     1
102
RTVSPropertyOp56
 70
     1
102
RTVSPropertyOp57
 70
     1
102
RTVSPost2010Prop28
280
     0
102
RTVSPost2010PropOp28
 70
     1
102
RTVSPost2010Prop29
280
     1
102
RTVSPost2010PropOp29
 70
     1
102
RTVSPost2010Prop30
280
     1
102
RTVSPost2010PropOp30
 70
     1
102
RTVSPost2010Prop31
280
     0
102
RTVSPost2010PropOp31
 70
     1
102
RTVSPost2010Prop32
280
     0
102
RTVSPost2010PropOp32
 70
     1
102
RTVSPost2010Prop33
280
     0
102
RTVSPost2010PropOp33
 70
     1
102
RTVSPost2010Prop34
280
     0
102
RTVSPost2010PropOp34
 70
     1
102
RTVSPost2010Prop35
280
     0
102
RTVSPost2010PropOp35
 70
     1
102
RTVSPost2010Prop36
280
     0
102
RTVSPost2010PropOp36
 70
     1
102
RTVSPost2010Prop37
 90
       50
102
RTVSPost2010PropOp37
 70
     1
102
RTVSPost2010Prop38
140
0.0
102
RTVSPost2010PropOp38
 70
     1
102
RTVSPost2010Prop39
140
1.0
102
RTVSPost2010PropOp39
 70
     1
102
RTVSPost2010Prop40
 90
        0
102
RTVSPost2010PropOp40
 70
     1
102
RTVSPost2010Prop41ColorIndex
 90
       18
102
RTVSPost2010Prop41ColorRGB
 90
        0
102
RTVSPost2010PropOp41
 70
     1
102
RTVSPost2010Prop42
 90
       50
102
RTVSPost2010PropOp42
 70
     1
102
RTVSPost2010Prop43
 90
        3
102
RTVSPost2010PropOp43
 70
     1
102
RTVSPost2010Prop44ColorIndex
 90
        5
102
RTVSPost2010Prop44ColorRGB
 90
      255
102
RTVSPost2010PropOp44
 70
     1
102
RTVSPost2010Prop45
280
     0
102
RTVSPost2010PropOp45
 70
     1
102
RTVSPost2010Prop46
 90
       50
102
RTVSPost2010PropOp46
 70
     1
102
RTVSPost2010Prop47
 90
       50
102
RTVSPost2010PropOp47
 70
     1
102
RTVSPost2010Prop48
 90
       50
102
RTVSPost2010PropOp48
 70
     1
102
RTVSPost2010Prop49
280
     0
102
RTVSPost2010PropOp49
 70
     1
102
RTVSPost2010Prop50
 90
       50
102
RTVSPost2010PropOp50
 70
     1
102
RTVSPost2010Prop51ColorIndex
 90
      256
102
RTVSPost2010Prop51ColorRGB
 90
-16777216
102
RTVSPost2010PropOp51
 70
     0
102
RTVSPost2010Prop52
140
1.0
102
RTVSPost2010PropOp52
 70
     0
102
RTVSPost2010Prop53
 90
        2
102
RTVSPost2010PropOp53
 70
     1
102
RTVSPost2010Prop54
  1
strokes_ogs.tif
102
RTVSPost2010PropOp54
 70
     1
102
RTVSPost2010Prop55
280
     0
102
RTVSPost2010PropOp55
 70
     1
102
RTVSPost2010Prop56
140
1.0
102
RTVSPost2010PropOp56
 70
     1
102
RTVSPost2010Prop57
140
1.0
102
RTVSPost2010PropOp57
 70
     1
  0
XRECORD
  5
BB
102
{ACAD_REACTORS
330
BA
102
}
330
BA
100
AcDbXrecord
280
     1
102
RTVSPropertyOp0
 70
     1
102
RTVSPropertyOp1
 70
     1
102
RTVSPropertyOp2
 70
     1
102
RTVSPropertyOp3
 70
     1
102
RTVSPropertyOp4
 70
     1
102
RTVSPropertyOp5
 70
     1
102
RTVSPropertyOp6
 70
     1
102
RTVSPropertyOp7
 70
     1
102
RTVSPropertyOp8
 70
     1
102
RTVSPropertyOp9
 70
     1
102
RTVSPropertyOp10
 70
     1
102
RTVSPropertyOp11
 70
     1
102
RTVSPropertyOp12
 70
     1
102
RTVSPropertyOp13
 70
     1
102
RTVSPropertyOp14
 70
     1
102
RTVSPropertyOp15
 70
     1
102
RTVSPropertyOp16
 70
     1
102
RTVSPropertyOp17
 70
     1
102
RTVSPropertyOp18
 70
     1
102
RTVSPropertyOp19
 70
     1
102
RTVSPropertyOp20
 70
     1
102
RTVSPropertyOp21
 70
     1
102
RTVSPropertyOp22
 70
     1
102
RTVSPropertyOp23
 70
     1
102
RTVSPropertyOp24
 70
     1
102
RTVSPropertyOp25
 70
     1
102
RTVSPropertyOp26
 70
     1
102
RTVSPropertyOp27
 70
     1
102
RTVSPropertyOp28
 70
     1
102
RTVSPropertyOp29
 70
     1
102
RTVSPropertyOp30
 70
     1
102
RTVSPropertyOp31
 70
     1
102
RTVSPropertyOp32
 70
     1
102
RTVSPropertyOp33
 70
     1
102
RTVSPropertyOp34
 70
     1
102
RTVSPropertyOp35
 70
     1
102
RTVSPropertyOp36
 70
     1
102
RTVSPropertyOp37
 70
     1
102
RTVSPropertyOp38
 70
     1
102
RTVSPropertyOp39
 70
     1
102
RTVSPropertyOp40
 70
     1
102
RTVSPropertyOp41
 70
     1
102
RTVSPropertyOp42
 70
     1
102
RTVSPropertyOp43
 70
     1
102
RTVSPropertyOp44
 70
     1
102
RTVSPropertyOp45
 70
     1
102
RTVSPropertyOp46
 70
     1
102
RTVSPropertyOp47
 70
     1
102
RTVSPropertyOp48
 70
     1
102
RTVSPropertyOp49
 70
     1
102
RTVSPropertyOp50
 70
     1
102
RTVSPropertyOp51
 70
     0
102
RTVSPropertyOp52
 70
     0
102
RTVSPropertyOp53
 70
     1
102
RTVSPropertyOp54
 70
     1
102
RTVSPropertyOp55
 70
     1
102
RTVSPropertyOp56
 70
     1
102
RTVSPropertyOp57
 70
     1
102
RTVSPost2010Prop28
280
     0
102
RTVSPost2010PropOp28
 70
     1
102
RTVSPost2010Prop29
280
     1
102
RTVSPost2010PropOp29
 70
     1
102
RTVSPost2010Prop30
280
     1
102
RTVSPost2010PropOp30
 70
     1
102
RTVSPost2010Prop31
280
     0
102
RTVSPost2010PropOp31
 70
     1
102
RTVSPost2010Prop32
280
     0
102
RTVSPost2010PropOp32
 70
     1
102
RTVSPost2010Prop33
280
     0
102
RTVSPost2010PropOp33
 70
     1
102
RTVSPost2010Prop34
280
     0
102
RTVSPost2010PropOp34
 70
     1
102
RTVSPost2010Prop35
280
     0
102
RTVSPost2010PropOp35
 70
     1
102
RTVSPost2010Prop36
280
     0
102
RTVSPost2010PropOp36
 70
     1
102
RTVSPost2010Prop37
 90
       50
102
RTVSPost2010PropOp37
 70
     1
102
RTVSPost2010Prop38
140
0.0
102
RTVSPost2010PropOp38
 70
     1
102
RTVSPost2010Prop39
140
1.0
102
RTVSPost2010PropOp39
 70
     1
102
RTVSPost2010Prop40
 90
        0
102
RTVSPost2010PropOp40
 70
     1
102
RTVSPost2010Prop41ColorIndex
 90
       18
102
RTVSPost2010Prop41ColorRGB
 90
        0
102
RTVSPost2010PropOp41
 70
     1
102
RTVSPost2010Prop42
 90
       50
102
RTVSPost2010PropOp42
 70
     1
102
RTVSPost2010Prop43
 90
        3
102
RTVSPost2010PropOp43
 70
     1
102
RTVSPost2010Prop44ColorIndex
 90
        5
102
RTVSPost2010Prop44ColorRGB
 90
      255
102
RTVSPost2010PropOp44
 70
     1
102
RTVSPost2010Prop45
280
     0
102
RTVSPost2010PropOp45
 70
     1
102
RTVSPost2010Prop46
 90
       50
102
RTVSPost2010PropOp46
 70
     1
102
RTVSPost2010Prop47
 90
       50
102
RTVSPost2010PropOp47
 70
     1
102
RTVSPost2010Prop48
 90
       50
102
RTVSPost2010PropOp48
 70
     1
102
RTVSPost2010Prop49
280
     0
102
RTVSPost2010PropOp49
 70
     1
102
RTVSPost2010Prop50
 90
       50
102
RTVSPost2010PropOp50
 70
     1
102
RTVSPost2010Prop51ColorIndex
 90
      256
102
RTVSPost2010Prop51ColorRGB
 90
-16777216
102
RTVSPost2010PropOp51
 70
     0
102
RTVSPost2010Prop52
140
1.0
102
RTVSPost2010PropOp52
 70
     0
102
RTVSPost2010Prop53
 90
        2
102
RTVSPost2010PropOp53
 70
     1
102
RTVSPost2010Prop54
  1
strokes_ogs.tif
102
RTVSPost2010PropOp54
 70
     1
102
RTVSPost2010Prop55
280
     0
102
RTVSPost2010PropOp55
 70
     1
102
RTVSPost2010Prop56
140
1.0
102
RTVSPost2010PropOp56
 70
     1
102
RTVSPost2010Prop57
140
1.0
102
RTVSPost2010PropOp57
 70
     1
  0
XRECORD
  5
B5
102
{ACAD_REACTORS
330
B4
102
}
330
B4
100
AcDbXrecord
280
     1
102
RTVSPropertyOp0
 70
     1
102
RTVSPropertyOp1
 70
     1
102
RTVSPropertyOp2
 70
     1
102
RTVSPropertyOp3
 70
     1
102
RTVSPropertyOp4
 70
     1
102
RTVSPropertyOp5
 70
     1
102
RTVSPropertyOp6
 70
     1
102
RTVSPropertyOp7
 70
     1
102
RTVSPropertyOp8
 70
     1
102
RTVSPropertyOp9
 70
     1
102
RTVSPropertyOp10
 70
     1
102
RTVSPropertyOp11
 70
     1
102
RTVSPropertyOp12
 70
     1
102
RTVSPropertyOp13
 70
     1
102
RTVSPropertyOp14
 70
     1
102
RTVSPropertyOp15
 70
     1
102
RTVSPropertyOp16
 70
     1
102
RTVSPropertyOp17
 70
     1
102
RTVSPropertyOp18
 70
     1
102
RTVSPropertyOp19
 70
     1
102
RTVSPropertyOp20
 70
     1
102
RTVSPropertyOp21
 70
     1
102
RTVSPropertyOp22
 70
     1
102
RTVSPropertyOp23
 70
     1
102
RTVSPropertyOp24
 70
     1
102
RTVSPropertyOp25
 70
     1
102
RTVSPropertyOp26
 70
     1
102
RTVSPropertyOp27
 70
     1
102
RTVSPropertyOp28
 70
     1
102
RTVSPropertyOp29
 70
     1
102
RTVSPropertyOp30
 70
     1
102
RTVSPropertyOp31
 70
     1
102
RTVSPropertyOp32
 70
     1
102
RTVSPropertyOp33
 70
     1
102
RTVSPropertyOp34
 70
     1
102
RTVSPropertyOp35
 70
     1
102
RTVSPropertyOp36
 70
     1
102
RTVSPropertyOp37
 70
     1
102
RTVSPropertyOp38
 70
     1
102
RTVSPropertyOp39
 70
     1
102
RTVSPropertyOp40
 70
     1
102
RTVSPropertyOp41
 70
     1
102
RTVSPropertyOp42
 70
     1
102
RTVSPropertyOp43
 70
     1
102
RTVSPropertyOp44
 70
     1
102
RTVSPropertyOp45
 70
     1
102
RTVSPropertyOp46
 70
     1
102
RTVSPropertyOp47
 70
     1
102
RTVSPropertyOp48
 70
     1
102
RTVSPropertyOp49
 70
     1
102
RTVSPropertyOp50
 70
     1
102
RTVSPropertyOp51
 70
     0
102
RTVSPropertyOp52
 70
     0
102
RTVSPropertyOp53
 70
     1
102
RTVSPropertyOp54
 70
     1
102
RTVSPropertyOp55
 70
     1
102
RTVSPropertyOp56
 70
     1
102
RTVSPropertyOp57
 70
     1
102
RTVSPost2010Prop28
280
     0
102
RTVSPost2010PropOp28
 70
     1
102
RTVSPost2010Prop29
280
     1
102
RTVSPost2010PropOp29
 70
     1
102
RTVSPost2010Prop30
280
     1
102
RTVSPost2010PropOp30
 70
     1
102
RTVSPost2010Prop31
280
     0
102
RTVSPost2010PropOp31
 70
     1
102
RTVSPost2010Prop32
280
     0
102
RTVSPost2010PropOp32
 70
     1
102
RTVSPost2010Prop33
280
     0
102
RTVSPost2010PropOp33
 70
     1
102
RTVSPost2010Prop34
280
     0
102
RTVSPost2010PropOp34
 70
     1
102
RTVSPost2010Prop35
280
     0
102
RTVSPost2010PropOp35
 70
     1
102
RTVSPost2010Prop36
280
     0
102
RTVSPost2010PropOp36
 70
     1
102
RTVSPost2010Prop37
 90
       50
102
RTVSPost2010PropOp37
 70
     1
102
RTVSPost2010Prop38
140
0.0
102
RTVSPost2010PropOp38
 70
     1
102
RTVSPost2010Prop39
140
1.0
102
RTVSPost2010PropOp39
 70
     1
102
RTVSPost2010Prop40
 90
        0
102
RTVSPost2010PropOp40
 70
     1
102
RTVSPost2010Prop41ColorIndex
 90
       18
102
RTVSPost2010Prop41ColorRGB
 90
        0
102
RTVSPost2010PropOp41
 70
     1
102
RTVSPost2010Prop42
 90
       50
102
RTVSPost2010PropOp42
 70
     1
102
RTVSPost2010Prop43
 90
        3
102
RTVSPost2010PropOp43
 70
     1
102
RTVSPost2010Prop44ColorIndex
 90
        5
102
RTVSPost2010Prop44ColorRGB
 90
      255
102
RTVSPost2010PropOp44
 70
     1
102
RTVSPost2010Prop45
280
     0
102
RTVSPost2010PropOp45
 70
     1
102
RTVSPost2010Prop46
 90
       50
102
RTVSPost2010PropOp46
 70
     1
102
RTVSPost2010Prop47
 90
       50
102
RTVSPost2010PropOp47
 70
     1
102
RTVSPost2010Prop48
 90
       50
102
RTVSPost2010PropOp48
 70
     1
102
RTVSPost2010Prop49
280
     0
102
RTVSPost2010PropOp49
 70
     1
102
RTVSPost2010Prop50
 90
       50
102
RTVSPost2010PropOp50
 70
     1
102
RTVSPost2010Prop51ColorIndex
 90
      256
102
RTVSPost2010Prop51ColorRGB
 90
-16777216
102
RTVSPost2010PropOp51
 70
     0
102
RTVSPost2010Prop52
140
1.0
102
RTVSPost2010PropOp52
 70
     0
102
RTVSPost2010Prop53
 90
        2
102
RTVSPost2010PropOp53
 70
     1
102
RTVSPost2010Prop54
  1
strokes_ogs.tif
102
RTVSPost2010PropOp54
 70
     1
102
RTVSPost2010Prop55
280
     0
102
RTVSPost2010PropOp55
 70
     1
102
RTVSPost2010Prop56
140
1.0
102
RTVSPost2010PropOp56
 70
     1
102
RTVSPost2010Prop57
140
1.0
102
RTVSPost2010PropOp57
 70
     1
  0
XRECORD
  5
B7
102
{ACAD_REACTORS
330
B6
102
}
330
B6
100
AcDbXrecord
280
     1
102
RTVSPropertyOp0
 70
     1
102
RTVSPropertyOp1
 70
     1
102
RTVSPropertyOp2
 70
     1
102
RTVSPropertyOp3
 70
     1
102
RTVSPropertyOp4
 70
     1
102
RTVSPropertyOp5
 70
     1
102
RTVSPropertyOp6
 70
     1
102
RTVSPropertyOp7
 70
     1
102
RTVSPropertyOp8
 70
     1
102
RTVSPropertyOp9
 70
     1
102
RTVSPropertyOp10
 70
     1
102
RTVSPropertyOp11
 70
     1
102
RTVSPropertyOp12
 70
     1
102
RTVSPropertyOp13
 70
     1
102
RTVSPropertyOp14
 70
     1
102
RTVSPropertyOp15
 70
     1
102
RTVSPropertyOp16
 70
     1
102
RTVSPropertyOp17
 70
     1
102
RTVSPropertyOp18
 70
     1
102
RTVSPropertyOp19
 70
     1
102
RTVSPropertyOp20
 70
     1
102
RTVSPropertyOp21
 70
     1
102
RTVSPropertyOp22
 70
     1
102
RTVSPropertyOp23
 70
     1
102
RTVSPropertyOp24
 70
     1
102
RTVSPropertyOp25
 70
     1
102
RTVSPropertyOp26
 70
     1
102
RTVSPropertyOp27
 70
     1
102
RTVSPropertyOp28
 70
     1
102
RTVSPropertyOp29
 70
     1
102
RTVSPropertyOp30
 70
     1
102
RTVSPropertyOp31
 70
     1
102
RTVSPropertyOp32
 70
     1
102
RTVSPropertyOp33
 70
     1
102
RTVSPropertyOp34
 70
     1
102
RTVSPropertyOp35
 70
     1
102
RTVSPropertyOp36
 70
     1
102
RTVSPropertyOp37
 70
     1
102
RTVSPropertyOp38
 70
     1
102
RTVSPropertyOp39
 70
     1
102
RTVSPropertyOp40
 70
     1
102
RTVSPropertyOp41
 70
     1
102
RTVSPropertyOp42
 70
     1
102
RTVSPropertyOp43
 70
     1
102
RTVSPropertyOp44
 70
     1
102
RTVSPropertyOp45
 70
     1
102
RTVSPropertyOp46
 70
     1
102
RTVSPropertyOp47
 70
     1
102
RTVSPropertyOp48
 70
     1
102
RTVSPropertyOp49
 70
     1
102
RTVSPropertyOp50
 70
     1
102
RTVSPropertyOp51
 70
     0
102
RTVSPropertyOp52
 70
     0
102
RTVSPropertyOp53
 70
     1
102
RTVSPropertyOp54
 70
     1
102
RTVSPropertyOp55
 70
     1
102
RTVSPropertyOp56
 70
     1
102
RTVSPropertyOp57
 70
     1
102
RTVSPost2010Prop28
280
     0
102
RTVSPost2010PropOp28
 70
     1
102
RTVSPost2010Prop29
280
     1
102
RTVSPost2010PropOp29
 70
     1
102
RTVSPost2010Prop30
280
     1
102
RTVSPost2010PropOp30
 70
     1
102
RTVSPost2010Prop31
280
     0
102
RTVSPost2010PropOp31
 70
     1
102
RTVSPost2010Prop32
280
     0
102
RTVSPost2010PropOp32
 70
     1
102
RTVSPost2010Prop33
280
     0
102
RTVSPost2010PropOp33
 70
     1
102
RTVSPost2010Prop34
280
     0
102
RTVSPost2010PropOp34
 70
     1
102
RTVSPost2010Prop35
280
     0
102
RTVSPost2010PropOp35
 70
     1
102
RTVSPost2010Prop36
280
     0
102
RTVSPost2010PropOp36
 70
     1
102
RTVSPost2010Prop37
 90
       50
102
RTVSPost2010PropOp37
 70
     1
102
RTVSPost2010Prop38
140
0.0
102
RTVSPost2010PropOp38
 70
     1
102
RTVSPost2010Prop39
140
1.0
102
RTVSPost2010PropOp39
 70
     1
102
RTVSPost2010Prop40
 90
        0
102
RTVSPost2010PropOp40
 70
     1
102
RTVSPost2010Prop41ColorIndex
 90
       18
102
RTVSPost2010Prop41ColorRGB
 90
        0
102
RTVSPost2010PropOp41
 70
     1
102
RTVSPost2010Prop42
 90
       50
102
RTVSPost2010PropOp42
 70
     1
102
RTVSPost2010Prop43
 90
        3
102
RTVSPost2010PropOp43
 70
     1
102
RTVSPost2010Prop44ColorIndex
 90
        5
102
RTVSPost2010Prop44ColorRGB
 90
      255
102
RTVSPost2010PropOp44
 70
     1
102
RTVSPost2010Prop45
280
     0
102
RTVSPost2010PropOp45
 70
     1
102
RTVSPost2010Prop46
 90
       50
102
RTVSPost2010PropOp46
 70
     1
102
RTVSPost2010Prop47
 90
       50
102
RTVSPost2010PropOp47
 70
     1
102
RTVSPost2010Prop48
 90
       50
102
RTVSPost2010PropOp48
 70
     1
102
RTVSPost2010Prop49
280
     0
102
RTVSPost2010PropOp49
 70
     1
102
RTVSPost2010Prop50
 90
       50
102
RTVSPost2010PropOp50
 70
     1
102
RTVSPost2010Prop51ColorIndex
 90
      256
102
RTVSPost2010Prop51ColorRGB
 90
-16777216
102
RTVSPost2010PropOp51
 70
     0
102
RTVSPost2010Prop52
140
1.0
102
RTVSPost2010PropOp52
 70
     0
102
RTVSPost2010Prop53
 90
        2
102
RTVSPost2010PropOp53
 70
     1
102
RTVSPost2010Prop54
  1
strokes_ogs.tif
102
RTVSPost2010PropOp54
 70
     1
102
RTVSPost2010Prop55
280
     0
102
RTVSPost2010PropOp55
 70
     1
102
RTVSPost2010Prop56
140
1.0
102
RTVSPost2010PropOp56
 70
     1
102
RTVSPost2010Prop57
140
1.0
102
RTVSPost2010PropOp57
 70
     1
  0
XRECORD
  5
A7
102
{ACAD_REACTORS
330
A6
102
}
330
A6
100
AcDbXrecord
280
     1
102
RTVSPropertyOp0
 70
     1
102
RTVSPropertyOp1
 70
     1
102
RTVSPropertyOp2
 70
     1
102
RTVSPropertyOp3
 70
     1
102
RTVSPropertyOp4
 70
     1
102
RTVSPropertyOp5
 70
     1
102
RTVSPropertyOp6
 70
     1
102
RTVSPropertyOp7
 70
     1
102
RTVSPropertyOp8
 70
     1
102
RTVSPropertyOp9
 70
     1
102
RTVSPropertyOp10
 70
     1
102
RTVSPropertyOp11
 70
     1
102
RTVSPropertyOp12
 70
     1
102
RTVSPropertyOp13
 70
     1
102
RTVSPropertyOp14
 70
     1
102
RTVSPropertyOp15
 70
     1
102
RTVSPropertyOp16
 70
     1
102
RTVSPropertyOp17
 70
     1
102
RTVSPropertyOp18
 70
     1
102
RTVSPropertyOp19
 70
     1
102
RTVSPropertyOp20
 70
     1
102
RTVSPropertyOp21
 70
     1
102
RTVSPropertyOp22
 70
     1
102
RTVSPropertyOp23
 70
     1
102
RTVSPropertyOp24
 70
     1
102
RTVSPropertyOp25
 70
     1
102
RTVSPropertyOp26
 70
     1
102
RTVSPropertyOp27
 70
     1
102
RTVSPropertyOp28
 70
     1
102
RTVSPropertyOp29
 70
     1
102
RTVSPropertyOp30
 70
     1
102
RTVSPropertyOp31
 70
     1
102
RTVSPropertyOp32
 70
     1
102
RTVSPropertyOp33
 70
     1
102
RTVSPropertyOp34
 70
     1
102
RTVSPropertyOp35
 70
     1
102
RTVSPropertyOp36
 70
     1
102
RTVSPropertyOp37
 70
     1
102
RTVSPropertyOp38
 70
     1
102
RTVSPropertyOp39
 70
     1
102
RTVSPropertyOp40
 70
     1
102
RTVSPropertyOp41
 70
     1
102
RTVSPropertyOp42
 70
     1
102
RTVSPropertyOp43
 70
     1
102
RTVSPropertyOp44
 70
     1
102
RTVSPropertyOp45
 70
     1
102
RTVSPropertyOp46
 70
     1
102
RTVSPropertyOp47
 70
     1
102
RTVSPropertyOp48
 70
     1
102
RTVSPropertyOp49
 70
     1
102
RTVSPropertyOp50
 70
     1
102
RTVSPropertyOp51
 70
     0
102
RTVSPropertyOp52
 70
     0
102
RTVSPropertyOp53
 70
     1
102
RTVSPropertyOp54
 70
     1
102
RTVSPropertyOp55
 70
     1
102
RTVSPropertyOp56
 70
     1
102
RTVSPropertyOp57
 70
     1
102
RTVSPost2010Prop28
280
     0
102
RTVSPost2010PropOp28
 70
     1
102
RTVSPost2010Prop29
280
     1
102
RTVSPost2010PropOp29
 70
     1
102
RTVSPost2010Prop30
280
     1
102
RTVSPost2010PropOp30
 70
     1
102
RTVSPost2010Prop31
280
     0
102
RTVSPost2010PropOp31
 70
     1
102
RTVSPost2010Prop32
280
     0
102
RTVSPost2010PropOp32
 70
     1
102
RTVSPost2010Prop33
280
     0
102
RTVSPost2010PropOp33
 70
     1
102
RTVSPost2010Prop34
280
     0
102
RTVSPost2010PropOp34
 70
     1
102
RTVSPost2010Prop35
280
     0
102
RTVSPost2010PropOp35
 70
     1
102
RTVSPost2010Prop36
280
     0
102
RTVSPost2010PropOp36
 70
     1
102
RTVSPost2010Prop37
 90
       50
102
RTVSPost2010PropOp37
 70
     1
102
RTVSPost2010Prop38
140
0.0
102
RTVSPost2010PropOp38
 70
     1
102
RTVSPost2010Prop39
140
1.0
102
RTVSPost2010PropOp39
 70
     1
102
RTVSPost2010Prop40
 90
        0
102
RTVSPost2010PropOp40
 70
     1
102
RTVSPost2010Prop41ColorIndex
 90
       18
102
RTVSPost2010Prop41ColorRGB
 90
        0
102
RTVSPost2010PropOp41
 70
     1
102
RTVSPost2010Prop42
 90
       50
102
RTVSPost2010PropOp42
 70
     1
102
RTVSPost2010Prop43
 90
        3
102
RTVSPost2010PropOp43
 70
     1
102
RTVSPost2010Prop44ColorIndex
 90
        5
102
RTVSPost2010Prop44ColorRGB
 90
      255
102
RTVSPost2010PropOp44
 70
     1
102
RTVSPost2010Prop45
280
     0
102
RTVSPost2010PropOp45
 70
     1
102
RTVSPost2010Prop46
 90
       50
102
RTVSPost2010PropOp46
 70
     1
102
RTVSPost2010Prop47
 90
       50
102
RTVSPost2010PropOp47
 70
     1
102
RTVSPost2010Prop48
 90
       50
102
RTVSPost2010PropOp48
 70
     1
102
RTVSPost2010Prop49
280
     0
102
RTVSPost2010PropOp49
 70
     1
102
RTVSPost2010Prop50
 90
       50
102
RTVSPost2010PropOp50
 70
     1
102
RTVSPost2010Prop51ColorIndex
 90
      256
102
RTVSPost2010Prop51ColorRGB
 90
-16777216
102
RTVSPost2010PropOp51
 70
     0
102
RTVSPost2010Prop52
140
1.0
102
RTVSPost2010PropOp52
 70
     0
102
RTVSPost2010Prop53
 90
        2
102
RTVSPost2010PropOp53
 70
     1
102
RTVSPost2010Prop54
  1
strokes_ogs.tif
102
RTVSPost2010PropOp54
 70
     1
102
RTVSPost2010Prop55
280
     0
102
RTVSPost2010PropOp55
 70
     1
102
RTVSPost2010Prop56
140
1.0
102
RTVSPost2010PropOp56
 70
     1
102
RTVSPost2010Prop57
140
1.0
102
RTVSPost2010PropOp57
 70
     1
  0
XRECORD
  5
99
102
{ACAD_REACTORS
330
98
102
}
330
98
100
AcDbXrecord
280
     1
102
RTVSPropertyOp0
 70
     1
102
RTVSPropertyOp1
 70
     1
102
RTVSPropertyOp2
 70
     1
102
RTVSPropertyOp3
 70
     1
102
RTVSPropertyOp4
 70
     1
102
RTVSPropertyOp5
 70
     1
102
RTVSPropertyOp6
 70
     1
102
RTVSPropertyOp7
 70
     1
102
RTVSPropertyOp8
 70
     1
102
RTVSPropertyOp9
 70
     1
102
RTVSPropertyOp10
 70
     1
102
RTVSPropertyOp11
 70
     1
102
RTVSPropertyOp12
 70
     1
102
RTVSPropertyOp13
 70
     1
102
RTVSPropertyOp14
 70
     1
102
RTVSPropertyOp15
 70
     1
102
RTVSPropertyOp16
 70
     1
102
RTVSPropertyOp17
 70
     1
102
RTVSPropertyOp18
 70
     1
102
RTVSPropertyOp19
 70
     1
102
RTVSPropertyOp20
 70
     1
102
RTVSPropertyOp21
 70
     1
102
RTVSPropertyOp22
 70
     1
102
RTVSPropertyOp23
 70
     1
102
RTVSPropertyOp24
 70
     1
102
RTVSPropertyOp25
 70
     1
102
RTVSPropertyOp26
 70
     1
102
RTVSPropertyOp27
 70
     1
102
RTVSPropertyOp28
 70
     1
102
RTVSPropertyOp29
 70
     1
102
RTVSPropertyOp30
 70
     1
102
RTVSPropertyOp31
 70
     1
102
RTVSPropertyOp32
 70
     1
102
RTVSPropertyOp33
 70
     1
102
RTVSPropertyOp34
 70
     1
102
RTVSPropertyOp35
 70
     1
102
RTVSPropertyOp36
 70
     1
102
RTVSPropertyOp37
 70
     1
102
RTVSPropertyOp38
 70
     1
102
RTVSPropertyOp39
 70
     1
102
RTVSPropertyOp40
 70
     1
102
RTVSPropertyOp41
 70
     1
102
RTVSPropertyOp42
 70
     1
102
RTVSPropertyOp43
 70
     1
102
RTVSPropertyOp44
 70
     1
102
RTVSPropertyOp45
 70
     1
102
RTVSPropertyOp46
 70
     1
102
RTVSPropertyOp47
 70
     1
102
RTVSPropertyOp48
 70
     1
102
RTVSPropertyOp49
 70
     1
102
RTVSPropertyOp50
 70
     1
102
RTVSPropertyOp51
 70
     0
102
RTVSPropertyOp52
 70
     0
102
RTVSPropertyOp53
 70
     1
102
RTVSPropertyOp54
 70
     1
102
RTVSPropertyOp55
 70
     1
102
RTVSPropertyOp56
 70
     1
102
RTVSPropertyOp57
 70
     1
102
RTVSPost2010Prop28
280
     0
102
RTVSPost2010PropOp28
 70
     1
102
RTVSPost2010Prop29
280
     1
102
RTVSPost2010PropOp29
 70
     1
102
RTVSPost2010Prop30
280
     1
102
RTVSPost2010PropOp30
 70
     1
102
RTVSPost2010Prop31
280
     0
102
RTVSPost2010PropOp31
 70
     1
102
RTVSPost2010Prop32
280
     0
102
RTVSPost2010PropOp32
 70
     1
102
RTVSPost2010Prop33
280
     0
102
RTVSPost2010PropOp33
 70
     1
102
RTVSPost2010Prop34
280
     0
102
RTVSPost2010PropOp34
 70
     1
102
RTVSPost2010Prop35
280
     0
102
RTVSPost2010PropOp35
 70
     1
102
RTVSPost2010Prop36
280
     0
102
RTVSPost2010PropOp36
 70
     1
102
RTVSPost2010Prop37
 90
       50
102
RTVSPost2010PropOp37
 70
     1
102
RTVSPost2010Prop38
140
0.0
102
RTVSPost2010PropOp38
 70
     1
102
RTVSPost2010Prop39
140
1.0
102
RTVSPost2010PropOp39
 70
     1
102
RTVSPost2010Prop40
 90
        0
102
RTVSPost2010PropOp40
 70
     1
102
RTVSPost2010Prop41ColorIndex
 90
       18
102
RTVSPost2010Prop41ColorRGB
 90
        0
102
RTVSPost2010PropOp41
 70
     1
102
RTVSPost2010Prop42
 90
       50
102
RTVSPost2010PropOp42
 70
     1
102
RTVSPost2010Prop43
 90
        3
102
RTVSPost2010PropOp43
 70
     1
102
RTVSPost2010Prop44ColorIndex
 90
        5
102
RTVSPost2010Prop44ColorRGB
 90
      255
102
RTVSPost2010PropOp44
 70
     1
102
RTVSPost2010Prop45
280
     0
102
RTVSPost2010PropOp45
 70
     1
102
RTVSPost2010Prop46
 90
       50
102
RTVSPost2010PropOp46
 70
     1
102
RTVSPost2010Prop47
 90
       50
102
RTVSPost2010PropOp47
 70
     1
102
RTVSPost2010Prop48
 90
       50
102
RTVSPost2010PropOp48
 70
     1
102
RTVSPost2010Prop49
280
     0
102
RTVSPost2010PropOp49
 70
     1
102
RTVSPost2010Prop50
 90
       50
102
RTVSPost2010PropOp50
 70
     1
102
RTVSPost2010Prop51ColorIndex
 90
      256
102
RTVSPost2010Prop51ColorRGB
 90
-16777216
102
RTVSPost2010PropOp51
 70
     0
102
RTVSPost2010Prop52
140
1.0
102
RTVSPost2010PropOp52
 70
     0
102
RTVSPost2010Prop53
 90
        2
102
RTVSPost2010PropOp53
 70
     1
102
RTVSPost2010Prop54
  1
strokes_ogs.tif
102
RTVSPost2010PropOp54
 70
     1
102
RTVSPost2010Prop55
280
     0
102
RTVSPost2010PropOp55
 70
     1
102
RTVSPost2010Prop56
140
1.0
102
RTVSPost2010PropOp56
 70
     1
102
RTVSPost2010Prop57
140
1.0
102
RTVSPost2010PropOp57
 70
     1
  0
XRECORD
  5
B9
102
{ACAD_REACTORS
330
B8
102
}
330
B8
100
AcDbXrecord
280
     1
102
RTVSPropertyOp0
 70
     1
102
RTVSPropertyOp1
 70
     1
102
RTVSPropertyOp2
 70
     1
102
RTVSPropertyOp3
 70
     1
102
RTVSPropertyOp4
 70
     1
102
RTVSPropertyOp5
 70
     1
102
RTVSPropertyOp6
 70
     1
102
RTVSPropertyOp7
 70
     1
102
RTVSPropertyOp8
 70
     1
102
RTVSPropertyOp9
 70
     1
102
RTVSPropertyOp10
 70
     1
102
RTVSPropertyOp11
 70
     1
102
RTVSPropertyOp12
 70
     1
102
RTVSPropertyOp13
 70
     1
102
RTVSPropertyOp14
 70
     1
102
RTVSPropertyOp15
 70
     1
102
RTVSPropertyOp16
 70
     1
102
RTVSPropertyOp17
 70
     1
102
RTVSPropertyOp18
 70
     1
102
RTVSPropertyOp19
 70
     1
102
RTVSPropertyOp20
 70
     1
102
RTVSPropertyOp21
 70
     1
102
RTVSPropertyOp22
 70
     1
102
RTVSPropertyOp23
 70
     1
102
RTVSPropertyOp24
 70
     1
102
RTVSPropertyOp25
 70
     1
102
RTVSPropertyOp26
 70
     1
102
RTVSPropertyOp27
 70
     1
102
RTVSPropertyOp28
 70
     1
102
RTVSPropertyOp29
 70
     1
102
RTVSPropertyOp30
 70
     1
102
RTVSPropertyOp31
 70
     1
102
RTVSPropertyOp32
 70
     1
102
RTVSPropertyOp33
 70
     1
102
RTVSPropertyOp34
 70
     1
102
RTVSPropertyOp35
 70
     1
102
RTVSPropertyOp36
 70
     1
102
RTVSPropertyOp37
 70
     1
102
RTVSPropertyOp38
 70
     1
102
RTVSPropertyOp39
 70
     1
102
RTVSPropertyOp40
 70
     1
102
RTVSPropertyOp41
 70
     1
102
RTVSPropertyOp42
 70
     1
102
RTVSPropertyOp43
 70
     1
102
RTVSPropertyOp44
 70
     1
102
RTVSPropertyOp45
 70
     1
102
RTVSPropertyOp46
 70
     1
102
RTVSPropertyOp47
 70
     1
102
RTVSPropertyOp48
 70
     1
102
RTVSPropertyOp49
 70
     1
102
RTVSPropertyOp50
 70
     1
102
RTVSPropertyOp51
 70
     0
102
RTVSPropertyOp52
 70
     0
102
RTVSPropertyOp53
 70
     1
102
RTVSPropertyOp54
 70
     1
102
RTVSPropertyOp55
 70
     1
102
RTVSPropertyOp56
 70
     1
102
RTVSPropertyOp57
 70
     1
102
RTVSPost2010Prop28
280
     0
102
RTVSPost2010PropOp28
 70
     1
102
RTVSPost2010Prop29
280
     1
102
RTVSPost2010PropOp29
 70
     1
102
RTVSPost2010Prop30
280
     1
102
RTVSPost2010PropOp30
 70
     1
102
RTVSPost2010Prop31
280
     0
102
RTVSPost2010PropOp31
 70
     1
102
RTVSPost2010Prop32
280
     0
102
RTVSPost2010PropOp32
 70
     1
102
RTVSPost2010Prop33
280
     0
102
RTVSPost2010PropOp33
 70
     1
102
RTVSPost2010Prop34
280
     0
102
RTVSPost2010PropOp34
 70
     1
102
RTVSPost2010Prop35
280
     0
102
RTVSPost2010PropOp35
 70
     1
102
RTVSPost2010Prop36
280
     0
102
RTVSPost2010PropOp36
 70
     1
102
RTVSPost2010Prop37
 90
       50
102
RTVSPost2010PropOp37
 70
     1
102
RTVSPost2010Prop38
140
0.0
102
RTVSPost2010PropOp38
 70
     1
102
RTVSPost2010Prop39
140
1.0
102
RTVSPost2010PropOp39
 70
     1
102
RTVSPost2010Prop40
 90
        0
102
RTVSPost2010PropOp40
 70
     1
102
RTVSPost2010Prop41ColorIndex
 90
       18
102
RTVSPost2010Prop41ColorRGB
 90
        0
102
RTVSPost2010PropOp41
 70
     1
102
RTVSPost2010Prop42
 90
       50
102
RTVSPost2010PropOp42
 70
     1
102
RTVSPost2010Prop43
 90
        3
102
RTVSPost2010PropOp43
 70
     1
102
RTVSPost2010Prop44ColorIndex
 90
        5
102
RTVSPost2010Prop44ColorRGB
 90
      255
102
RTVSPost2010PropOp44
 70
     1
102
RTVSPost2010Prop45
280
     0
102
RTVSPost2010PropOp45
 70
     1
102
RTVSPost2010Prop46
 90
       50
102
RTVSPost2010PropOp46
 70
     1
102
RTVSPost2010Prop47
 90
       50
102
RTVSPost2010PropOp47
 70
     1
102
RTVSPost2010Prop48
 90
       50
102
RTVSPost2010PropOp48
 70
     1
102
RTVSPost2010Prop49
280
     0
102
RTVSPost2010PropOp49
 70
     1
102
RTVSPost2010Prop50
 90
       50
102
RTVSPost2010PropOp50
 70
     1
102
RTVSPost2010Prop51ColorIndex
 90
      256
102
RTVSPost2010Prop51ColorRGB
 90
-16777216
102
RTVSPost2010PropOp51
 70
     0
102
RTVSPost2010Prop52
140
1.0
102
RTVSPost2010PropOp52
 70
     0
102
RTVSPost2010Prop53
 90
        2
102
RTVSPost2010PropOp53
 70
     1
102
RTVSPost2010Prop54
  1
strokes_ogs.tif
102
RTVSPost2010PropOp54
 70
     1
102
RTVSPost2010Prop55
280
     0
102
RTVSPost2010PropOp55
 70
     1
102
RTVSPost2010Prop56
140
1.0
102
RTVSPost2010PropOp56
 70
     1
102
RTVSPost2010Prop57
140
1.0
102
RTVSPost2010PropOp57
 70
     1
  0
ENDSEC
  0
EOF
