  0
SECTION
  2
HEADER
  9
$ACADVER
  1
AC1015
  9
$DWGCODEPAGE
  3
ansi_1252
  9
$INSBASE
 10
0
 20
0
 30
0
  9
$EXTMIN
 10
1.0000007932831068E-07
 20
1E-07
 30
0
  9
$EXTMAX
 10
1210.0000001
 20
1240.0000001
 30
0
  9
$LIMMIN
 10
0
 20
0
  9
$LIMMAX
 10
12
 20
9
  9
$SNAPMODE
 70
0
  9
$SNAPUNIT
 10
1
 20
1
  9
$SNAPBASE
 10
0
 20
0
  9
$SNAPANG
 50
0
  9
$SNAPSTYLE
 70
0
  9
$SNAPISOPAIR
 70
0
  9
$ORTHOMODE
 70
0
  9
$REGENMODE
 70
1
  9
$FILLMODE
 70
1
  9
$QTEXTMODE
 70
0
  9
$MIRRTEXT
 70
1
  9
$LTSCALE
 40
1
  9
$OSMODE
 70
0
  9
$ATTMODE
 70
1
  9
$TEXTSIZE
 40
0.2
  9
$TRACEWID
 40
0.05
  9
$TEXTSTYLE
  7
Standard
  9
$CLAYER
  8
0
  9
$CELTYPE
  6
ByLayer
  9
$CECOLOR
 62
256
  9
$CELTSCALE
 40
1
  9
$DISPSILH
 70
0
  9
$DIMSCALE
 40
1
  9
$DIMASZ
 40
0.18
  9
$DIMEXO
 40
0.0625
  9
$DIMDLI
 40
0.38
  9
$DIMRND
 40
0
  9
$DIMDLE
 40
0
  9
$DIMEXE
 40
0.18
  9
$DIMTP
 40
0
  9
$DIMTM
 40
0
  9
$DIMTXT
 40
0.18
  9
$DIMCEN
 40
0.09
  9
$DIMTSZ
 40
0
  9
$DIMTOL
 70
0
  9
$DIMLIM
 70
0
  9
$DIMTIH
 70
1
  9
$DIMTOH
 70
1
  9
$DIMSE1
 70
0
  9
$DIMSE2
 70
0
  9
$DIMTAD
 70
0
  9
$DIMZIN
 70
0
  9
$DIMBLK
  1

  9
$DIMASO
 70
1
  9
$DIMSHO
 70
1
  9
$DIMPOST
  1

  9
$DIMAPOST
  1

  9
$DIMALT
 70
0
  9
$DIMALTD
 70
2
  9
$DIMALTF
 40
0.03937007874015748
  9
$DIMLFAC
 40
1
  9
$DIMTOFL
 70
0
  9
$DIMTVP
 40
0
  9
$DIMTIX
 70
0
  9
$DIMSOXD
 70
0
  9
$DIMSAH
 70
0
  9
$DIMBLK1
  1

  9
$DIMBLK2
  1

  9
$DIMSTYLE
  2
Standard
  9
$DIMCLRD
 70
0
  9
$DIMCLRE
 70
0
  9
$DIMCLRT
 70
0
  9
$DIMTFAC
 40
1
  9
$DIMGAP
 40
0.09
  9
$DIMJUST
 70
0
  9
$DIMSD1
 70
0
  9
$DIMSD2
 70
0
  9
$DIMTOLJ
 70
1
  9
$DIMTZIN
 70
0
  9
$DIMALTZ
 70
0
  9
$DIMALTTZ
 70
0
  9
$DIMUPT
 70
0
  9
$DIMDEC
 70
4
  9
$DIMTDEC
 70
4
  9
$DIMALTU
 70
2
  9
$DIMALTTD
 70
0
  9
$DIMTXSTY
  7
Standard
  9
$DIMAUNIT
 70
0
  9
$DIMADEC
 70
0
  9
$DIMALTRND
 40
0
  9
$DIMAZIN
 70
0
  9
$DIMDSEP
 70
46
  9
$DIMATFIT
 70
0
  9
$DIMFRAC
 70
0
  9
$DIMLDRBLK
  1

  9
$DIMLUNIT
 70
2
  9
$DIMLWD
 70
-2
  9
$DIMLWE
 70
-2
  9
$LUNITS
 70
2
  9
$LUPREC
 70
4
  9
$SKETCHINC
 40
0.1
  9
$FILLETRAD
 40
0
  9
$AUNITS
 70
0
  9
$AUPREC
 70
0
  9
$MENU
  1
.
  9
$ELEVATION
 40
0
  9
$PELEVATION
 40
0
  9
$THICKNESS
 40
0
  9
$LIMCHECK
 70
0
  9
$CHAMFERA
 40
0.5
  9
$CHAMFERB
 40
0.5
  9
$CHAMFERC
 40
0
  9
$CHAMFERD
 40
0
  9
$SKPOLY
 70
0
  9
$TDCREATE
 40
2461017.8804086572
  9
$TDUCREATE
 40
2461017.5470753242
  9
$TDUPDATE
 40
2461017.8804086572
  9
$TDUUPDATE
 40
2461017.5470753242
  9
$TDINDWG
 40
0
  9
$TDUSRTIMER
 40
1.1574074074074074E-08
  9
$USRTIMER
 70
1
  9
$ANGBASE
 50
0
  9
$ANGDIR
 70
1
  9
$PDMODE
 70
0
  9
$PDSIZE
 40
0
  9
$PLINEWID
 40
0
  9
$SPLFRAME
 70
0
  9
$SPLINETYPE
 70
6
  9
$SPLINESEGS
 70
8
  9
$HANDSEED
  5
5E4
  9
$SURFTAB1
 70
6
  9
$SURFTAB2
 70
6
  9
$SURFTYPE
 70
6
  9
$SURFU
 70
6
  9
$SURFV
 70
6
  9
$UCSORG
 10
0
 20
0
 30
0
  9
$UCSXDIR
 10
1
 20
0
 30
0
  9
$UCSYDIR
 10
0
 20
1
 30
0
  9
$UCSORTHOREF
  2

  9
$UCSORTHOVIEW
 70
0
  9
$UCSORGTOP
 10
0
 20
0
 30
0
  9
$UCSORGBOTTOM
 10
0
 20
0
 30
0
  9
$UCSORGLEFT
 10
0
 20
0
 30
0
  9
$UCSORGRIGHT
 10
0
 20
0
 30
0
  9
$UCSORGFRONT
 10
0
 20
0
 30
0
  9
$UCSORGBACK
 10
0
 20
0
 30
0
  9
$PUCSORG
 10
0
 20
0
 30
0
  9
$PUCSXDIR
 10
1
 20
0
 30
0
  9
$PUCSYDIR
 10
0
 20
1
 30
0
  9
$PUCSORTHOREF
  2

  9
$PUCSORTHOVIEW
 70
0
  9
$PUCSORGTOP
 10
0
 20
0
 30
0
  9
$PUCSORGBOTTOM
 10
0
 20
0
 30
0
  9
$PUCSORGLEFT
 10
0
 20
0
 30
0
  9
$PUCSORGRIGHT
 10
0
 20
0
 30
0
  9
$PUCSORGFRONT
 10
0
 20
0
 30
0
  9
$PUCSORGBACK
 10
0
 20
0
 30
0
  9
$USERI1
 70
0
  9
$USERI2
 70
0
  9
$USERI3
 70
0
  9
$USERI4
 70
0
  9
$USERI5
 70
0
  9
$USERR1
 40
0
  9
$USERR2
 40
0
  9
$USERR3
 40
0
  9
$USERR4
 40
0
  9
$USERR5
 40
0
  9
$WORLDVIEW
 70
1
  9
$SHADEDGE
 70
3
  9
$SHADEDIF
 70
70
  9
$TILEMODE
 70
1
  9
$MAXACTVP
 70
48
  9
$PINSBASE
 10
0
 20
0
 30
0
  9
$PLIMCHECK
 70
0
  9
$PEXTMIN
 10
1E+20
 20
1E+20
 30
1E+20
  9
$PEXTMAX
 10
-1E+20
 20
-1E+20
 30
-1E+20
  9
$PLIMMAX
 10
0
 20
0
  9
$PLIMMIN
 10
0
 20
0
  9
$UNITMODE
 70
0
  9
$VISRETAIN
 70
1
  9
$PLINEGEN
 70
1
  9
$PSLTSCALE
 70
1
  9
$TREEDEPTH
 70
3020
  9
$CMLSTYLE
  2
STANDARD
  9
$CMLJUST
 70
0
  9
$CMLSCALE
 40
1
  9
$PROXYGRAPHICS
 70
1
  9
$MEASUREMENT
 70
1
  9
$CELWEIGHT
370
-1
  9
$ENDCAPS
280
0
  9
$JOINSTYLE
280
0
  9
$LWDISPLAY
290
1
  9
$INSUNITS
 70
4
  9
$HYPERLINKBASE
  1

  9
$XEDIT
290
1
  9
$CEPSNTYPE
380
0
  9
$PSTYLEMODE
290
0
  9
$FINGERPRINTGUID
  2

  9
$VERSIONGUID
  2

  9
$EXTNAMES
290
1
  9
$PSVPSCALE
 40
0
  9
$CSHADOW
280
0
  9
$SHADOWPLANELOCATION
 40
0
  0
ENDSEC
  0
SECTION
  2
CLASSES
  0
CLASS
  1
RASTERVARIABLES
  2
AcDbRasterVariables
  3
ISM
 90
0
280
0
281
0
  0
CLASS
  1
IMAGEDEF
  2
AcDbRasterImageDef
  3
ISM
 90
0
280
0
281
0
  0
CLASS
  1
IMAGEDEF_REACTOR
  2
AcDbRasterImageDefReactor
  3
ISM
 90
1
280
0
281
0
  0
CLASS
  1
IMAGE
  2
AcDbRasterImage
  3
ISM
 90
127
280
0
281
1
  0
CLASS
  1
ACAD_EVALUATION_GRAPH
  2
AcDbEvalGraph
  3
ObjectDBX Classes
 90
1153
280
0
281
0
  0
CLASS
  1
BLOCKPOINTPARAMETER
  2
AcDbBlockPointParameter
  3
ObjectDBX Classes
 90
1153
280
0
281
0
  0
CLASS
  1
BLOCKBASEPOINTPARAMETER
  2
AcDbBlockBasepointParameter
  3
ObjectDBX Classes
 90
1153
280
0
281
0
  0
CLASS
  1
BLOCKLOOKUPPARAMETER
  2
AcDbBlockLookupParameter
  3
ObjectDBX Classes
 90
1153
280
0
281
0
  0
CLASS
  1
BLOCKVISIBILITYPARAMETER
  2
AcDbBlockVisibilityParameter
  3
ObjectDBX Classes
 90
1153
280
0
281
0
  0
CLASS
  1
BLOCKPROPERTIESTABLE
  2
AcDbBlockPropertiesTable
  3
ObjectDBX Classes
 90
1153
280
0
281
0
  0
CLASS
  1
BLOCKPOLARPARAMETER
  2
AcDbBlockPolarParameter
  3
ObjectDBX Classes
 90
1153
280
0
281
0
  0
CLASS
  1
BLOCKROTATIONPARAMETER
  2
AcDbBlockRotationParameter
  3
ObjectDBX Classes
 90
1153
280
0
281
0
  0
CLASS
  1
BLOCKLINEARPARAMETER
  2
AcDbBlockLinearParameter
  3
ObjectDBX Classes
 90
1153
280
0
281
0
  0
CLASS
  1
BLOCKXYPARAMETER
  2
AcDbBlockXYParameter
  3
ObjectDBX Classes
 90
1153
280
0
281
0
  0
CLASS
  1
BLOCKFLIPPARAMETER
  2
AcDbBlockFlipParameter
  3
ObjectDBX Classes
 90
1153
280
0
281
0
  0
CLASS
  1
BLOCKALIGNMENTPARAMETER
  2
AcDbBlockAlignmentParameter
  3
ObjectDBX Classes
 90
1153
280
0
281
0
  0
CLASS
  1
BLOCKROTATEACTION
  2
AcDbBlockRotateAction
  3
ObjectDBX Classes
 90
1153
280
0
281
0
  0
CLASS
  1
BLOCKSCALEACTION
  2
AcDbBlockScaleAction
  3
ObjectDBX Classes
 90
1153
280
0
281
0
  0
CLASS
  1
BLOCKARRAYACTION
  2
AcDbBlockArrayAction
  3
ObjectDBX Classes
 90
1153
280
0
281
0
  0
CLASS
  1
BLOCKFLIPACTION
  2
AcDbBlockFlipAction
  3
ObjectDBX Classes
 90
1153
280
0
281
0
  0
CLASS
  1
BLOCKLOOKUPACTION
  2
AcDbBlockLookupAction
  3
ObjectDBX Classes
 90
1153
280
0
281
0
  0
CLASS
  1
BLOCKMOVEACTION
  2
AcDbBlockMoveAction
  3
ObjectDBX Classes
 90
1153
280
0
281
0
  0
CLASS
  1
BLOCKPOLARSTRETCHACTION
  2
AcDbBlockPolarStretchAction
  3
ObjectDBX Classes
 90
1153
280
0
281
0
  0
CLASS
  1
BLOCKSTRETCHACTION
  2
AcDbBlockStretchAction
  3
ObjectDBX Classes
 90
1153
280
0
281
0
  0
CLASS
  1
BLOCKALIGNMENTGRIP
  2
AcDbBlockAlignmentGrip
  3
ObjectDBX Classes
 90
1153
280
0
281
0
  0
CLASS
  1
BLOCKFLIPGRIP
  2
AcDbBlockFlipGrip
  3
ObjectDBX Classes
 90
1153
280
0
281
0
  0
CLASS
  1
ACDB_BLOCKREPRESENTATION_DATA
  2
AcDbBlockRepresentationData
  3
ObjectDBX Classes
 90
1153
280
0
281
0
  0
CLASS
  1
ACDB_DYNAMICBLOCKPURGEPREVENTER_VERSION
  2
AcDbDynamicBlockPurgePreventer
  3
ObjectDBX Classes
 90
1153
280
0
281
0
  0
CLASS
  1
BLOCKLINEARGRIP
  2
AcDbBlockLinearGrip
  3
ObjectDBX Classes
 90
1153
280
0
281
0
  0
CLASS
  1
BLOCKLOOKUPGRIP
  2
AcDbBlockLookupGrip
  3
ObjectDBX Classes
 90
1153
280
0
281
0
  0
CLASS
  1
BLOCKPOLARGRIP
  2
AcDbBlockPolarGrip
  3
ObjectDBX Classes
 90
1153
280
0
281
0
  0
CLASS
  1
BLOCKPROPERTIESTABLEGRIP
  2
AcDbBlockPropertiesTableGrip
  3
ObjectDBX Classes
 90
1153
280
0
281
0
  0
CLASS
  1
BLOCKROTATIONGRIP
  2
AcDbBlockRotationGrip
  3
ObjectDBX Classes
 90
1153
280
0
281
0
  0
CLASS
  1
BLOCKVISIBILITYGRIP
  2
AcDbBlockVisibilityGrip
  3
ObjectDBX Classes
 90
1153
280
0
281
0
  0
CLASS
  1
BLOCKXYGRIP
  2
AcDbBlockXYGrip
  3
ObjectDBX Classes
 90
1153
280
0
281
0
  0
CLASS
  1
BLOCKGRIPLOCATIONCOMPONENT
  2
AcDbBlockGripExpr
  3
ObjectDBX Classes
 90
1153
280
0
281
0
  0
CLASS
  1
ACDB_DYNAMICBLOCKPROXYNODE
  2
AcDbDynamicBlockProxyNode
  3
ObjectDBX Classes
 90
1153
280
0
281
0
  0
CLASS
  1
BLOCKLINEARCONSTRAINTPARAMETER
  2
AcDbBlockLinearConstraintParameter
  3
ObjectDBX Classes
 90
1153
280
0
281
0
  0
CLASS
  1
BLOCKHORIZONTALCONSTRAINTPARAMETER
  2
AcDbBlockHorizontalConstraintParameter
  3
ObjectDBX Classes
 90
1153
280
0
281
0
  0
CLASS
  1
BLOCKVERTICALCONSTRAINTPARAMETER
  2
AcDbBlockVerticalConstraintParameter
  3
ObjectDBX Classes
 90
1153
280
0
281
0
  0
CLASS
  1
BLOCKALIGNEDCONSTRAINTPARAMETER
  2
AcDbBlockAlignedConstraintParameter
  3
ObjectDBX Classes
 90
1153
280
0
281
0
  0
CLASS
  1
BLOCKANGULARCONSTRAINTPARAMETER
  2
AcDbBlockAngularConstraintParameter
  3
ObjectDBX Classes
 90
1153
280
0
281
0
  0
CLASS
  1
BLOCKDIAMETRICCONSTRAINTPARAMETER
  2
AcDbBlockDiametricConstraintParameter
  3
ObjectDBX Classes
 90
1153
280
0
281
0
  0
CLASS
  1
BLOCKRADIALCONSTRAINTPARAMETER
  2
AcDbBlockRadialConstraintParameter
  3
ObjectDBX Classes
 90
1153
280
0
281
0
  0
ENDSEC
  0
SECTION
  2
TABLES
  0
TABLE
  2
VPORT
  5
8
330
0
100
AcDbSymbolTable
 70
1
  0
VPORT
  5
5BF
330
8
100
AcDbSymbolTableRecord
100
AcDbViewportTableRecord
  2
*Active
 70
64
 10
0
 20
0
 11
1
 21
1
 12
605.00000010000008
 22
620.00000010000008
 13
0
 23
0
 14
1
 24
1
 15
0
 25
0
 16
0
 26
0
 36
1
 17
0
 27
0
 37
0
 40
1240
 41
0.97580645161290325
 42
50
 43
0
 44
0
 50
0
 51
0
 71
0
 72
20000
 73
20000
 74
1
 75
0
 76
0
 77
0
 78
0
281
0
 65
1
110
0
120
0
130
0
111
1
121
0
131
0
112
0
122
1
132
0
 79
0
146
0
  0
ENDTAB
  0
TABLE
  2
LTYPE
  5
5
100
AcDbSymbolTable
 70
3
  0
LTYPE
  5
16
330
5
100
AcDbSymbolTableRecord
100
AcDbLinetypeTableRecord
  2
Continuous
  3
Solid line
 70
64
 72
65
 73
0
 40
0
  0
LTYPE
  5
14
330
5
100
AcDbSymbolTableRecord
100
AcDbLinetypeTableRecord
  2
ByBlock
  3

 70
64
 72
65
 73
0
 40
0
  0
LTYPE
  5
15
330
5
100
AcDbSymbolTableRecord
100
AcDbLinetypeTableRecord
  2
ByLayer
  3

 70
64
 72
65
 73
0
 40
0
  0
ENDTAB
  0
TABLE
  2
LAYER
  5
2
100
AcDbSymbolTable
 70
3
  0
LAYER
  5
10
330
2
100
AcDbSymbolTableRecord
100
AcDbLayerTableRecord
 70
64
  2
0
 62
2
  6
Continuous
370
-3
390
F
  0
LAYER
  5
27
330
2
100
AcDbSymbolTableRecord
100
AcDbLayerTableRecord
 70
64
  2
sheet
 62
18
  6
Continuous
370
-3
390
F
  0
LAYER
  5
28
330
2
100
AcDbSymbolTableRecord
100
AcDbLayerTableRecord
 70
64
  2
DEFPOINTS
 62
7
  6
Continuous
290
0
370
-3
390
F
  0
ENDTAB
  0
TABLE
  2
STYLE
  5
3
100
AcDbSymbolTable
 70
1
  0
STYLE
  5
11
330
3
100
AcDbSymbolTableRecord
100
AcDbTextStyleTableRecord
  2
Standard
 70
64
 40
0
 41
1
 50
0
 71
0
 42
0.2
  3
txt.shx
  0
ENDTAB
  0
TABLE
  2
VIEW
  5
6
100
AcDbSymbolTable
 70
0
  0
ENDTAB
  0
TABLE
  2
UCS
  5
7
100
AcDbSymbolTable
 70
0
  0
ENDTAB
  0
TABLE
  2
APPID
  5
9
330
0
100
AcDbSymbolTable
 70
2
  0
APPID
  5
12
330
0
100
AcDbSymbolTableRecord
100
AcDbRegAppTableRecord
  2
ACAD
 70
64
  0
APPID
  5
5E2
330
0
100
AcDbSymbolTableRecord
100
AcDbRegAppTableRecord
  2
ACAD_MLEADERVER
 70
64
  0
ENDTAB
  0
TABLE
  2
DIMSTYLE
  5
A
330
0
100
AcDbSymbolTable
 70
1
100
AcDbDimStyleTable
 71
0
  0
DIMSTYLE
105
5BE
330
A
100
AcDbSymbolTableRecord
100
AcDbDimStyleTableRecord
  2
Standard
 70
64
  3

  4

 40
1
 41
0.18
 42
0.0625
 43
0.38
 44
0.18
 45
0
 46
0
 47
0
 48
0
140
0.18
141
0.09
142
0
143
1
144
1
145
0
146
1
147
0.09
148
0
 71
0
 72
0
 73
1
 74
1
 75
0
 76
0
 77
0
 78
0
 79
0
170
0
171
2
172
0
173
0
174
0
175
0
179
0
271
4
272
4
273
2
274
0
275
0
276
0
277
2
278
46
279
0
280
0
281
0
282
0
283
1
284
0
285
0
286
0
288
0
289
0
340
11
371
-2
372
-2
  0
ENDTAB
  0
TABLE
  2
BLOCK_RECORD
  5
1
330
0
100
AcDbSymbolTable
 70
3
  0
BLOCK_RECORD
  5
1F
330
1
100
AcDbSymbolTableRecord
100
AcDbBlockTableRecord
  2
*Model_Space
340
22
  0
BLOCK_RECORD
  5
5BB
330
1
100
AcDbSymbolTableRecord
100
AcDbBlockTableRecord
  2
*Paper_Space
340
1E
  0
ENDTAB
  0
ENDSEC
  0
SECTION
  2
BLOCKS
  0
BLOCK
  5
20
330
1F
100
AcDbEntity
  8
0
100
AcDbBlockBegin
  2
*Model_Space
 70
64
 10
0
 20
0
 30
0
  3
*Model_Space
  0
ENDBLK
  5
21
330
1F
100
AcDbEntity
  8
0
100
AcDbBlockEnd
  0
BLOCK
  5
5BC
330
5BB
100
AcDbEntity
  8
0
 67
1
100
AcDbBlockBegin
  2
*Paper_Space
 70
64
 10
0
 20
0
 30
0
  3
*Paper_Space
  0
ENDBLK
  5
5BD
330
5BB
100
AcDbEntity
  8
0
100
AcDbBlockEnd
  0
ENDSEC
  0
SECTION
  2
ENTITIES
  0
LINE
  5
29
330
1F
100
AcDbEntity
  8
sheet
 62
18
100
AcDbLine
 10
1210.0000001
 20
1E-07
 30
0
 11
1210.0000001
 21
1240.0000001
 31
0
  0
LINE
  5
2A
330
1F
100
AcDbEntity
  8
sheet
 62
18
100
AcDbLine
 10
1210.0000001
 20
1240.0000001
 30
0
 11
1.0000007932831068E-07
 21
1240.0000001
 31
0
  0
LINE
  5
2B
330
1F
100
AcDbEntity
  8
sheet
 62
18
100
AcDbLine
 10
1.0000007932831068E-07
 20
1240.0000001
 30
0
 11
1.0000007932831068E-07
 21
1.0000007409113135E-07
 31
0
  0
LINE
  5
2C
330
1F
100
AcDbEntity
  8
sheet
 62
18
100
AcDbLine
 10
1.0000007932831068E-07
 20
1.0000007409113135E-07
 30
0
 11
1210.0000001
 21
1E-07
 31
0
  0
LINE
  5
2D
330
1F
100
AcDbEntity
  8
0
 62
2
100
AcDbLine
 10
935.86400009951808
 20
1232.0000001
 30
0
 11
705.908082336118
 21
1232.0000001004014
 31
0
  0
LINE
  5
2E
330
1F
100
AcDbEntity
  8
0
 62
2
100
AcDbLine
 10
705.908082336118
 20
1232.0000001004014
 30
0
 11
702.90808233612324
 21
1235.0000001004066
 31
0
  0
LINE
  5
2F
330
1F
100
AcDbEntity
  8
0
 62
2
100
AcDbLine
 10
702.90808233612324
 20
1235.0000001004066
 30
0
 11
659.90808233612324
 21
1235.0000001004817
 31
0
  0
LINE
  5
30
330
1F
100
AcDbEntity
  8
0
 62
2
100
AcDbLine
 10
659.90808233612324
 20
1235.0000001004817
 30
0
 11
659.90808233606742
 21
1203.0000001004817
 31
0
  0
LINE
  5
31
330
1F
100
AcDbEntity
  8
0
 62
2
100
AcDbLine
 10
659.90808233606742
 20
1203.0000001004817
 30
0
 11
702.90808233606742
 21
1203.0000001004066
 31
0
  0
LINE
  5
32
330
1F
100
AcDbEntity
  8
0
 62
2
100
AcDbLine
 10
702.90808233606742
 20
1203.0000001004066
 30
0
 11
705.90808233607265
 21
1206.0000001004014
 31
0
  0
LINE
  5
33
330
1F
100
AcDbEntity
  8
0
 62
2
100
AcDbLine
 10
705.90808233607265
 20
1206.0000001004014
 30
0
 11
935.86400009947261
 21
1205.9999966369971
 31
0
  0
ARC
  5
34
330
1F
100
AcDbEntity
  8
0
 62
2
100
AcDbCircle
 10
935.86400010540228
 20
1179.9999966630908
 30
0
 40
25.9999999739064
100
AcDbArc
 50
62.655635494697371
 51
90.000000013067137
  0
LINE
  5
35
330
1F
100
AcDbEntity
  8
0
 62
2
100
AcDbLine
 10
947.80677455236969
 20
1203.0948042429775
 30
0
 11
1011.9784511889225
 21
1169.9103814269049
 31
0
  0
ARC
  5
36
330
1F
100
AcDbEntity
  8
0
 62
2
100
AcDbCircle
 10
1035.8640000994556
 20
1216.0999966366473
 30
0
 40
51.9999999998227
100
AcDbArc
 50
242.65563550374239
 51
269.99999999993838
  0
LINE
  5
37
330
1F
100
AcDbEntity
  8
0
 62
2
100
AcDbLine
 10
1035.8640000993996
 20
1164.0999966368247
 30
0
 11
1150.0000000993994
 21
1164.0999966366255
 31
0
  0
ARC
  5
38
330
1F
100
AcDbEntity
  8
0
 62
2
100
AcDbCircle
 10
1150.000000098149
 20
1138.0999966354198
 30
0
 40
26.0000000012057
100
AcDbArc
 50
2.5569076048748008E-09
 51
89.999999997244672
  0
LINE
  5
39
330
1F
100
AcDbEntity
  8
0
 62
2
100
AcDbLine
 10
1176.0000000993541
 20
1138.09999663658
 30
0
 11
1176.0000000992202
 21
1092.312718599979
 31
0
  0
LINE
  5
3A
330
1F
100
AcDbEntity
  8
0
 62
2
100
AcDbLine
 10
1176.0000000992202
 20
1092.312718599979
 30
0
 11
1173.0000000992109
 21
1089.3127185999842
 31
0
  0
LINE
  5
3B
330
1F
100
AcDbEntity
  8
0
 62
2
100
AcDbLine
 10
1173.0000000992109
 20
1089.3127185999842
 30
0
 11
1173.0000000990829
 21
1046.3127185999842
 31
0
  0
LINE
  5
3C
330
1F
100
AcDbEntity
  8
0
 62
2
100
AcDbLine
 10
1173.0000000990829
 20
1046.3127185999842
 30
0
 11
1205.0000000990829
 21
1046.3127185999283
 31
0
  0
LINE
  5
3D
330
1F
100
AcDbEntity
  8
0
 62
2
100
AcDbLine
 10
1205.0000000990829
 20
1046.3127185999283
 30
0
 11
1205.0000000992109
 21
1089.3127185999283
 31
0
  0
LINE
  5
3E
330
1F
100
AcDbEntity
  8
0
 62
2
100
AcDbLine
 10
1205.0000000992109
 20
1089.3127185999283
 30
0
 11
1202.0000000992202
 21
1092.3127185999335
 31
0
  0
LINE
  5
3F
330
1F
100
AcDbEntity
  8
0
 62
2
100
AcDbLine
 10
1202.0000000992202
 20
1092.3127185999335
 30
0
 11
1202.0000000993541
 21
1138.0999966365348
 31
0
  0
ARC
  5
40
330
1F
100
AcDbEntity
  8
0
 62
2
100
AcDbCircle
 10
1150.0000000966481
 20
1138.0999966339189
 30
0
 40
52.0000000027066
100
AcDbArc
 50
2.8823458743795058E-09
 51
89.99999999691849
  0
LINE
  5
41
330
1F
100
AcDbEntity
  8
0
 62
2
100
AcDbLine
 10
1150.0000000994448
 20
1190.0999966366255
 30
0
 11
1035.8640000994449
 21
1190.0999966368247
 31
0
  0
ARC
  5
42
330
1F
100
AcDbEntity
  8
0
 62
2
100
AcDbCircle
 10
1035.8640001173023
 20
1216.0999967040466
 30
0
 40
26.0000000672217
100
AcDbArc
 50
242.65563555815905
 51
269.99999996064781
  0
LINE
  5
43
330
1F
100
AcDbEntity
  8
0
 62
2
100
AcDbLine
 10
1023.9212256530517
 20
1193.0051890280431
 30
0
 11
959.74954901540923
 21
1226.1896118448581
 31
0
  0
ARC
  5
44
330
1F
100
AcDbEntity
  8
0
 62
2
100
AcDbCircle
 10
935.86399299236257
 20
1179.9999984072761
 30
0
 40
52.0000016927244
100
AcDbArc
 50
62.655627645633082
 51
89.999992169038435
  0
LINE
  5
45
330
1F
100
AcDbEntity
  8
0
 62
2
100
AcDbLine
 10
895.20083494957294
 20
1196.2149771000002
 30
0
 11
665.27994058625768
 21
1192.2016929609358
 31
0
  0
LINE
  5
46
330
1F
100
AcDbEntity
  8
0
 62
2
100
AcDbLine
 10
665.27994058625768
 20
1192.2016929609358
 30
0
 11
662.22804028148187
 21
1195.1488788270985
 31
0
  0
LINE
  5
47
330
1F
100
AcDbEntity
  8
0
 62
2
100
AcDbLine
 10
662.22804028148187
 20
1195.1488788270985
 30
0
 11
619.23458938975568
 21
1194.3984253503704
 31
0
  0
LINE
  5
48
330
1F
100
AcDbEntity
  8
0
 62
2
100
AcDbLine
 10
619.23458938975568
 20
1194.3984253503704
 30
0
 11
619.7930663956929
 21
1162.4032991053648
 31
0
  0
LINE
  5
49
330
1F
100
AcDbEntity
  8
0
 62
2
100
AcDbLine
 10
619.7930663956929
 20
1162.4032991053648
 30
0
 11
662.78651728741909
 21
1163.1537525820931
 31
0
  0
LINE
  5
4A
330
1F
100
AcDbEntity
  8
0
 62
2
100
AcDbLine
 10
662.78651728741909
 20
1163.1537525820931
 30
0
 11
665.7337031535817
 21
1166.2056528868688
 31
0
  0
LINE
  5
4B
330
1F
100
AcDbEntity
  8
0
 62
2
100
AcDbLine
 10
665.7337031535817
 20
1166.2056528868688
 30
0
 11
895.6545975773347
 21
1170.2189335634578
 31
0
  0
ARC
  5
4C
330
1F
100
AcDbEntity
  8
0
 62
2
100
AcDbCircle
 10
896.10836015017742
 20
1144.2228935155847
 30
0
 40
25.9999999739064
100
AcDbArc
 50
63.655635494697691
 51
91.000000013067066
  0
LINE
  5
4D
330
1F
100
AcDbEntity
  8
0
 62
2
100
AcDbLine
 10
907.64625568627525
 20
1167.5226137980521
 30
0
 11
972.38730670002656
 21
1135.4631953127298
 31
0
  0
ARC
  5
4E
330
1F
100
AcDbEntity
  8
0
 62
2
100
AcDbCircle
 10
995.46309778794625
 20
1182.0626359279156
 30
0
 40
51.9999999998227
100
AcDbArc
 50
243.65563550374233
 51
270.99999999993815
  0
LINE
  5
4F
330
1F
100
AcDbEntity
  8
0
 62
2
100
AcDbLine
 10
996.37062292262578
 20
1130.0705557799597
 30
0
 11
1110.489239456999
 21
1132.0625036408865
 31
0
  0
ARC
  5
50
330
1F
100
AcDbEntity
  8
0
 62
2
100
AcDbCircle
 10
1110.9430020231393
 20
1106.0664635655928
 30
0
 40
26.0000000012057
100
AcDbArc
 50
1.0000000025568241
 51
90.999999997244757
  0
LINE
  5
51
330
1F
100
AcDbEntity
  8
0
 62
2
100
AcDbLine
 10
1136.93904209839
 20
1106.5202261341433
 30
0
 11
1137.7381402842079
 21
1060.7399217217605
 31
0
  0
LINE
  5
52
330
1F
100
AcDbEntity
  8
0
 62
2
100
AcDbLine
 10
1137.7381402842079
 20
1060.7399217217605
 30
0
 11
1134.7909544180413
 21
1057.6880214169846
 31
0
  0
LINE
  5
53
330
1F
100
AcDbEntity
  8
0
 62
2
100
AcDbLine
 10
1134.7909544180413
 20
1057.6880214169846
 30
0
 11
1135.5414078947165
 21
1014.6945705252575
 31
0
  0
LINE
  5
54
330
1F
100
AcDbEntity
  8
0
 62
2
100
AcDbLine
 10
1135.5414078947165
 20
1014.6945705252575
 30
0
 11
1167.5365341397221
 21
1015.2530475311947
 31
0
  0
LINE
  5
55
330
1F
100
AcDbEntity
  8
0
 62
2
100
AcDbLine
 10
1167.5365341397221
 20
1015.2530475311947
 30
0
 11
1166.7860806630467
 21
1058.2464984229218
 31
0
  0
LINE
  5
56
330
1F
100
AcDbEntity
  8
0
 62
2
100
AcDbLine
 10
1166.7860806630467
 20
1058.2464984229218
 30
0
 11
1163.7341803582749
 21
1061.1936842890846
 31
0
  0
LINE
  5
57
330
1F
100
AcDbEntity
  8
0
 62
2
100
AcDbLine
 10
1163.7341803582749
 20
1061.1936842890846
 30
0
 11
1162.9350821724572
 21
1106.9739887014675
 31
0
  0
ARC
  5
58
330
1F
100
AcDbEntity
  8
0
 62
2
100
AcDbCircle
 10
1110.9430020216648
 20
1106.066463564066
 30
0
 40
52.0000000027066
100
AcDbArc
 50
1.0000000028823774
 51
90.9999999969186
  0
LINE
  5
59
330
1F
100
AcDbEntity
  8
0
 62
2
100
AcDbLine
 10
1110.035476889675
 20
1158.0585437149532
 30
0
 11
995.91686035530176
 21
1156.0665958540267
 31
0
  0
ARC
  5
5A
330
1F
100
AcDbEntity
  8
0
 62
2
100
AcDbCircle
 10
995.46309780461388
 20
1182.0626359956161
 30
0
 40
26.0000000672217
100
AcDbArc
 50
243.65563555815922
 51
270.999999960648
  0
LINE
  5
5B
330
1F
100
AcDbEntity
  8
0
 62
2
100
AcDbLine
 10
983.92520225291287
 20
1158.762915616745
 30
0
 11
919.18415123805914
 21
1190.8223341027904
 31
0
  0
ARC
  5
5C
330
1F
100
AcDbEntity
  8
0
 62
2
100
AcDbCircle
 10
896.10835300778081
 20
1144.2228951353648
 30
0
 40
52.0000016927244
100
AcDbArc
 50
63.655627645633039
 51
90.9999921690385
  0
LINE
  5
5D
330
1F
100
AcDbEntity
  8
0
 62
2
100
AcDbLine
 10
855.16839769108356
 20
1159.7257354262567
 30
0
 11
625.35256285957
 21
1151.7003896329534
 31
0
  0
LINE
  5
5E
330
1F
100
AcDbEntity
  8
0
 62
2
100
AcDbLine
 10
625.35256285957
 20
1151.7003896329534
 30
0
 11
622.24969188841033
 21
1154.5938636239086
 31
0
  0
LINE
  5
5F
330
1F
100
AcDbEntity
  8
0
 62
2
100
AcDbLine
 10
622.24969188841033
 20
1154.5938636239086
 30
0
 11
579.27588632658649
 21
1153.0931852657761
 31
0
  0
LINE
  5
60
330
1F
100
AcDbEntity
  8
0
 62
2
100
AcDbLine
 10
579.27588632658649
 20
1153.0931852657761
 30
0
 11
580.3926702210108
 21
1121.1126788011629
 31
0
  0
LINE
  5
61
330
1F
100
AcDbEntity
  8
0
 62
2
100
AcDbLine
 10
580.3926702210108
 20
1121.1126788011629
 30
0
 11
623.36647578283453
 21
1122.6133571592957
 31
0
  0
LINE
  5
62
330
1F
100
AcDbEntity
  8
0
 62
2
100
AcDbLine
 10
623.36647578283453
 20
1122.6133571592957
 30
0
 11
626.25994977378969
 21
1125.7162281304554
 31
0
  0
LINE
  5
63
330
1F
100
AcDbEntity
  8
0
 62
2
100
AcDbLine
 10
626.25994977378969
 20
1125.7162281304554
 30
0
 11
856.07578472616024
 21
1133.7415704628654
 31
0
  0
ARC
  5
64
330
1F
100
AcDbEntity
  8
0
 62
2
100
AcDbCircle
 10
856.98317164544073
 20
1107.7574089866534
 30
0
 40
25.9999999739064
100
AcDbArc
 50
64.65563549469779
 51
92.000000013067265
  0
LINE
  5
65
330
1F
100
AcDbEntity
  8
0
 62
2
100
AcDbLine
 10
868.11267371591873
 20
1131.2549446511941
 30
0
 11
933.4033783555692
 21
1100.3302961060592
 31
0
  0
ARC
  5
66
330
1F
100
AcDbEntity
  8
0
 62
2
100
AcDbCircle
 10
955.66238251136974
 20
1147.3253674856583
 30
0
 40
51.9999999998227
100
AcDbArc
 50
244.65563550374247
 51
271.99999999993815
  0
LINE
  5
67
330
1F
100
AcDbEntity
  8
0
 62
2
100
AcDbLine
 10
957.47715633983751
 20
1095.3570444808404
 30
0
 11
1071.5436277724959
 21
1099.3403334362781
 31
0
  0
ARC
  5
68
330
1F
100
AcDbEntity
  8
0
 62
2
100
AcDbCircle
 10
1072.4510146855534
 20
1073.356171932533
 30
0
 40
26.0000000012057
100
AcDbArc
 50
2.0000000025571234
 51
91.999999997244615
  0
LINE
  5
69
330
1F
100
AcDbEntity
  8
0
 62
2
100
AcDbLine
 10
1098.4351761892137
 20
1074.2635588479998
 30
0
 11
1100.0331291479347
 21
1028.5041731840429
 31
0
  0
LINE
  5
6A
330
1F
100
AcDbEntity
  8
0
 62
2
100
AcDbLine
 10
1100.0331291479347
 20
1028.5041731840429
 30
0
 11
1097.1396551569756
 21
1025.4013022128829
 31
0
  0
LINE
  5
6B
330
1F
100
AcDbEntity
  8
0
 62
2
100
AcDbLine
 10
1097.1396551569756
 20
1025.4013022128829
 30
0
 11
1098.6403335150551
 21
982.42749665105748
 31
0
  0
LINE
  5
6C
330
1F
100
AcDbEntity
  8
0
 62
2
100
AcDbLine
 10
1098.6403335150551
 20
982.42749665105748
 30
0
 11
1130.6208399796683
 21
983.54428054548168
 31
0
  0
LINE
  5
6D
330
1F
100
AcDbEntity
  8
0
 62
2
100
AcDbLine
 10
1130.6208399796683
 20
983.54428054548168
 30
0
 11
1129.1201616215885
 21
1026.5180861073072
 31
0
  0
LINE
  5
6E
330
1F
100
AcDbEntity
  8
0
 62
2
100
AcDbLine
 10
1129.1201616215885
 20
1026.5180861073072
 30
0
 11
1126.0172906504329
 21
1029.4115600982625
 31
0
  0
LINE
  5
6F
330
1F
100
AcDbEntity
  8
0
 62
2
100
AcDbLine
 10
1126.0172906504329
 20
1029.4115600982625
 30
0
 11
1124.4193376917119
 21
1075.1709457622194
 31
0
  0
ARC
  5
70
330
1F
100
AcDbEntity
  8
0
 62
2
100
AcDbCircle
 10
1072.4510146841058
 20
1073.3561719309805
 30
0
 40
52.0000000027066
100
AcDbArc
 50
2.0000000028823983
 51
91.99999999691839
  0
LINE
  5
71
330
1F
100
AcDbEntity
  8
0
 62
2
100
AcDbLine
 10
1070.6362408582763
 20
1125.3244949387761
 30
0
 11
956.56976942561789
 21
1121.3412059833386
 31
0
  0
ARC
  5
72
330
1F
100
AcDbEntity
  8
0
 62
2
100
AcDbCircle
 10
955.66238252685332
 20
1147.3253675536391
 30
0
 40
26.0000000672217
100
AcDbArc
 50
244.65563555815928
 51
271.99999996064804
  0
LINE
  5
73
330
1F
100
AcDbEntity
  8
0
 62
2
100
AcDbLine
 10
944.532880442457
 20
1123.8278317924371
 30
0
 11
879.2421758016917
 21
1154.7524803382757
 31
0
  0
ARC
  5
74
330
1F
100
AcDbEntity
  8
0
 62
2
100
AcDbCircle
 10
856.98316447586285
 20
1107.7574104815349
 30
0
 40
52.0000016927244
100
AcDbArc
 50
64.655627645632961
 51
91.999992169038492
  0
LINE
  5
75
330
1F
100
AcDbEntity
  8
0
 62
2
100
AcDbLine
 10
808.5393626459645
 20
1051.497419946015
 30
0
 11
1038.3551974774639
 21
1059.5227657397195
 31
0
  0
LINE
  5
76
330
1F
100
AcDbEntity
  8
0
 62
2
100
AcDbLine
 10
1038.3551974774639
 20
1059.5227657397195
 30
0
 11
1041.4580684486286
 21
1056.6292917487697
 31
0
  0
LINE
  5
77
330
1F
100
AcDbEntity
  8
0
 62
2
100
AcDbLine
 10
1041.4580684486286
 20
1056.6292917487697
 30
0
 11
1084.4318740104497
 21
1058.1299701069772
 31
0
  0
LINE
  5
78
330
1F
100
AcDbEntity
  8
0
 62
2
100
AcDbLine
 10
1084.4318740104497
 20
1058.1299701069772
 30
0
 11
1083.3150901159697
 21
1090.1104765715882
 31
0
  0
LINE
  5
79
330
1F
100
AcDbEntity
  8
0
 62
2
100
AcDbLine
 10
1083.3150901159697
 20
1090.1104765715882
 30
0
 11
1040.3412845541486
 21
1088.6097982133806
 31
0
  0
LINE
  5
7A
330
1F
100
AcDbEntity
  8
0
 62
2
100
AcDbLine
 10
1040.3412845541486
 20
1088.6097982133806
 30
0
 11
1037.4478105631988
 21
1085.5069272422159
 31
0
  0
LINE
  5
7B
330
1F
100
AcDbEntity
  8
0
 62
2
100
AcDbLine
 10
1037.4478105631988
 20
1085.5069272422159
 30
0
 11
807.63197561084235
 21
1077.4815849094048
 31
0
  0
ARC
  5
7C
330
1F
100
AcDbEntity
  8
0
 62
2
100
AcDbCircle
 10
806.7245886915166
 20
1103.4657463856151
 30
0
 40
25.9999999739064
100
AcDbArc
 50
244.65563549479754
 51
272.00000001316704
  0
LINE
  5
7D
330
1F
100
AcDbEntity
  8
0
 62
2
100
AcDbLine
 10
795.59508662107953
 20
1079.9682107210551
 30
0
 11
730.30438198137517
 21
1110.8928592660761
 31
0
  0
ARC
  5
7E
330
1F
100
AcDbEntity
  8
0
 62
2
100
AcDbCircle
 10
708.04537782565649
 20
1063.8977878864382
 30
0
 40
51.9999999998227
100
AcDbArc
 50
64.655635503842333
 51
92.000000000038057
  0
LINE
  5
7F
330
1F
100
AcDbEntity
  8
0
 62
2
100
AcDbLine
 10
706.23060399709811
 20
1115.8661108912527
 30
0
 11
592.16413256444662
 21
1111.8828219356162
 31
0
  0
ARC
  5
80
330
1F
100
AcDbEntity
  8
0
 62
2
100
AcDbCircle
 10
591.25674565134364
 20
1137.8669834393597
 30
0
 40
26.0000000012057
100
AcDbArc
 50
182.0000000026574
 51
271.9999999973449
  0
LINE
  5
81
330
1F
100
AcDbEntity
  8
0
 62
2
100
AcDbLine
 10
565.272584147685
 20
1136.9595965238475
 30
0
 11
563.67463118888418
 21
1182.7189821878017
 31
0
  0
LINE
  5
82
330
1F
100
AcDbEntity
  8
0
 62
2
100
AcDbLine
 10
563.67463118888418
 20
1182.7189821878017
 30
0
 11
566.568105179838
 21
1185.8218531589666
 31
0
  0
LINE
  5
83
330
1F
100
AcDbEntity
  8
0
 62
2
100
AcDbLine
 10
566.568105179838
 20
1185.8218531589666
 30
0
 11
565.0674268216834
 21
1228.7956587207896
 31
0
  0
LINE
  5
84
330
1F
100
AcDbEntity
  8
0
 62
2
100
AcDbLine
 10
565.0674268216834
 20
1228.7956587207896
 30
0
 11
533.08692035707224
 21
1227.6788748263095
 31
0
  0
LINE
  5
85
330
1F
100
AcDbEntity
  8
0
 62
2
100
AcDbLine
 10
533.08692035707224
 20
1227.6788748263095
 30
0
 11
534.58759871522693
 21
1184.7050692644866
 31
0
  0
LINE
  5
86
330
1F
100
AcDbEntity
  8
0
 62
2
100
AcDbLine
 10
534.58759871522693
 20
1184.7050692644866
 30
0
 11
537.6904696863877
 21
1181.8115952735366
 31
0
  0
LINE
  5
87
330
1F
100
AcDbEntity
  8
0
 62
2
100
AcDbLine
 10
537.6904696863877
 20
1181.8115952735366
 30
0
 11
539.28842264518846
 21
1136.0522096095826
 31
0
  0
ARC
  5
88
330
1F
100
AcDbEntity
  8
0
 62
2
100
AcDbCircle
 10
591.25674565279144
 20
1137.866983440912
 30
0
 40
52.0000000027066
100
AcDbArc
 50
182.00000000298218
 51
271.99999999701839
  0
LINE
  5
89
330
1F
100
AcDbEntity
  8
0
 62
2
100
AcDbLine
 10
593.07151947871159
 20
1085.8986604331196
 30
0
 11
707.13799091136309
 21
1089.8819493887563
 31
0
  0
ARC
  5
8A
330
1F
100
AcDbEntity
  8
0
 62
2
100
AcDbCircle
 10
708.045377810173
 20
1063.8977878184573
 30
0
 40
26.0000000672217
100
AcDbArc
 50
64.655635558259249
 51
91.999999960748085
  0
LINE
  5
8B
330
1F
100
AcDbEntity
  8
0
 62
2
100
AcDbLine
 10
719.17487989452832
 20
1087.3953235796787
 30
0
 11
784.46558453534749
 21
1056.470675033954
 31
0
  0
ARC
  5
8C
330
1F
100
AcDbEntity
  8
0
 62
2
100
AcDbCircle
 10
806.72459586109449
 20
1103.4657448907337
 30
0
 40
52.0000016927244
100
AcDbArc
 50
244.65562764573278
 51
271.99999216913847
  0
LINE
  5
8D
330
1F
100
AcDbEntity
  8
0
 62
2
100
AcDbLine
 10
768.69117501616859
 20
1009.7319590827884
 30
0
 11
998.61206937947668
 21
1013.7452432222539
 31
0
  0
LINE
  5
8E
330
1F
100
AcDbEntity
  8
0
 62
2
100
AcDbLine
 10
998.61206937947668
 20
1013.7452432222539
 30
0
 11
1001.6639696842577
 21
1010.7980573560965
 31
0
  0
LINE
  5
8F
330
1F
100
AcDbEntity
  8
0
 62
2
100
AcDbLine
 10
1001.6639696842577
 20
1010.7980573560965
 30
0
 11
1044.6574205759825
 21
1011.5485108328996
 31
0
  0
LINE
  5
90
330
1F
100
AcDbEntity
  8
0
 62
2
100
AcDbLine
 10
1044.6574205759825
 20
1011.5485108328996
 30
0
 11
1044.0989435699894
 21
1043.5436370779041
 31
0
  0
LINE
  5
91
330
1F
100
AcDbEntity
  8
0
 62
2
100
AcDbLine
 10
1044.0989435699894
 20
1043.5436370779041
 30
0
 11
1001.1054926782647
 21
1042.793183601101
 31
0
  0
LINE
  5
92
330
1F
100
AcDbEntity
  8
0
 62
2
100
AcDbLine
 10
1001.1054926782647
 20
1042.793183601101
 30
0
 11
998.1583068121073
 21
1039.74128329632
 31
0
  0
LINE
  5
93
330
1F
100
AcDbEntity
  8
0
 62
2
100
AcDbLine
 10
998.1583068121073
 20
1039.74128329632
 30
0
 11
768.23741238836146
 21
1035.72800261933
 31
0
  0
ARC
  5
94
330
1F
100
AcDbEntity
  8
0
 62
2
100
AcDbCircle
 10
767.78364981547338
 20
1061.7240426672024
 30
0
 40
25.9999999739064
100
AcDbArc
 50
243.65563549479759
 51
271.00000001316704
  0
LINE
  5
95
330
1F
100
AcDbEntity
  8
0
 62
2
100
AcDbLine
 10
756.24575427941613
 20
1038.4243223847147
 30
0
 11
691.5047032656089
 21
1070.4837408699243
 31
0
  0
ARC
  5
96
330
1F
100
AcDbEntity
  8
0
 62
2
100
AcDbCircle
 10
668.42891217777048
 20
1023.8843002546979
 30
0
 40
51.9999999998227
100
AcDbArc
 50
63.655635503842433
 51
91.000000000038142
  0
LINE
  5
97
330
1F
100
AcDbEntity
  8
0
 62
2
100
AcDbLine
 10
667.52138704300023
 20
1075.8763804026523
 30
0
 11
553.4027705086304
 21
1073.8844325415266
 31
0
  0
ARC
  5
98
330
1F
100
AcDbEntity
  8
0
 62
2
100
AcDbCircle
 10
552.94900794244472
 20
1099.8804726168194
 30
0
 40
26.0000000012057
100
AcDbArc
 50
181.00000000265706
 51
270.99999999734473
  0
LINE
  5
99
330
1F
100
AcDbEntity
  8
0
 62
2
100
AcDbLine
 10
526.95296786719484
 20
1099.4267100482234
 30
0
 11
526.15386968129724
 21
1145.207014460605
 31
0
  0
LINE
  5
9A
330
1F
100
AcDbEntity
  8
0
 62
2
100
AcDbLine
 10
526.15386968129724
 20
1145.207014460605
 30
0
 11
529.10105554745849
 21
1148.258914765386
 31
0
  0
LINE
  5
9B
330
1F
100
AcDbEntity
  8
0
 62
2
100
AcDbLine
 10
529.10105554745849
 20
1148.258914765386
 30
0
 11
528.35060207070819
 21
1191.2523656571118
 31
0
  0
LINE
  5
9C
330
1F
100
AcDbEntity
  8
0
 62
2
100
AcDbLine
 10
528.35060207070819
 20
1191.2523656571118
 30
0
 11
496.35547582570371
 21
1190.6938886511186
 31
0
  0
LINE
  5
9D
330
1F
100
AcDbEntity
  8
0
 62
2
100
AcDbLine
 10
496.35547582570371
 20
1190.6938886511186
 30
0
 11
497.10592930245389
 21
1147.700437759393
 31
0
  0
LINE
  5
9E
330
1F
100
AcDbEntity
  8
0
 62
2
100
AcDbLine
 10
497.10592930245389
 20
1147.700437759393
 30
0
 11
500.15782960723095
 21
1144.7532518932355
 31
0
  0
LINE
  5
9F
330
1F
100
AcDbEntity
  8
0
 62
2
100
AcDbLine
 10
500.15782960723095
 20
1144.7532518932355
 30
0
 11
500.95692779312856
 21
1098.9729474808541
 31
0
  0
ARC
  5
A0
330
1F
100
AcDbEntity
  8
0
 62
2
100
AcDbCircle
 10
552.94900794391936
 20
1099.8804726183462
 30
0
 40
52.0000000027066
100
AcDbArc
 50
181.00000000298209
 51
270.99999999701845
  0
LINE
  5
A1
330
1F
100
AcDbEntity
  8
0
 62
2
100
AcDbLine
 10
553.85653307599978
 20
1047.8883924674606
 30
0
 11
667.97514961036961
 21
1049.8803403285863
 31
0
  0
ARC
  5
A2
330
1F
100
AcDbEntity
  8
0
 62
2
100
AcDbCircle
 10
668.42891216110286
 20
1023.8843001869976
 30
0
 40
26.0000000672217
100
AcDbArc
 50
63.655635558259064
 51
90.999999960747942
  0
LINE
  5
A3
330
1F
100
AcDbEntity
  8
0
 62
2
100
AcDbLine
 10
679.96680771276328
 20
1047.1840205658889
 30
0
 11
744.70785872767294
 21
1015.1246020799564
 31
0
  0
ARC
  5
A4
330
1F
100
AcDbEntity
  8
0
 62
2
100
AcDbCircle
 10
767.78365695787
 20
1061.7240410474224
 30
0
 40
52.0000016927244
100
AcDbArc
 50
243.65562764573306
 51
270.99999216913852
  0
LINE
  5
A5
330
1F
100
AcDbEntity
  8
0
 62
2
100
AcDbLine
 10
728.02800986622356
 20
973.9469360827884
 30
0
 11
957.98392762962351
 21
973.9469360827884
 31
0
  0
LINE
  5
A6
330
1F
100
AcDbEntity
  8
0
 62
2
100
AcDbLine
 10
957.98392762962351
 20
973.9469360827884
 30
0
 11
960.98392762962351
 21
970.9469360827884
 31
0
  0
LINE
  5
A7
330
1F
100
AcDbEntity
  8
0
 62
2
100
AcDbLine
 10
960.98392762962351
 20
970.9469360827884
 30
0
 11
1003.9839276296235
 21
970.9469360827884
 31
0
  0
LINE
  5
A8
330
1F
100
AcDbEntity
  8
0
 62
2
100
AcDbLine
 10
1003.9839276296235
 20
970.9469360827884
 30
0
 11
1003.9839276296235
 21
1002.9469360827884
 31
0
  0
LINE
  5
A9
330
1F
100
AcDbEntity
  8
0
 62
2
100
AcDbLine
 10
1003.9839276296235
 20
1002.9469360827884
 30
0
 11
960.98392762962351
 21
1002.9469360827884
 31
0
  0
LINE
  5
AA
330
1F
100
AcDbEntity
  8
0
 62
2
100
AcDbLine
 10
960.98392762962351
 20
1002.9469360827884
 30
0
 11
957.98392762962351
 21
999.9469360827884
 31
0
  0
LINE
  5
AB
330
1F
100
AcDbEntity
  8
0
 62
2
100
AcDbLine
 10
957.98392762962351
 20
999.9469360827884
 30
0
 11
728.02800986622356
 21
999.94693954579134
 31
0
  0
ARC
  5
AC
330
1F
100
AcDbEntity
  8
0
 62
2
100
AcDbCircle
 10
728.0280098602484
 20
1025.9469395196977
 30
0
 40
25.9999999739064
100
AcDbArc
 50
242.65563549479776
 51
270.00000001316732
  0
LINE
  5
AD
330
1F
100
AcDbEntity
  8
0
 62
2
100
AcDbLine
 10
716.08523541332147
 20
1002.8521319397901
 30
0
 11
651.91355877671072
 21
1036.0365547557508
 31
0
  0
ARC
  5
AE
330
1F
100
AcDbEntity
  8
0
 62
2
100
AcDbCircle
 10
628.02800986625812
 20
989.84693954596651
 30
0
 40
51.9999999998227
100
AcDbArc
 50
62.655635503842369
 51
90.000000000038085
  0
LINE
  5
AF
330
1F
100
AcDbEntity
  8
0
 62
2
100
AcDbLine
 10
628.02800986622356
 20
1041.8469395457892
 30
0
 11
513.89200986622359
 21
1041.8469395457892
 31
0
  0
ARC
  5
B0
330
1F
100
AcDbEntity
  8
0
 62
2
100
AcDbCircle
 10
513.89200986742844
 20
1067.8469395469949
 30
0
 40
26.0000000012057
100
AcDbArc
 50
180.00000000265712
 51
269.99999999734484
  0
LINE
  5
B1
330
1F
100
AcDbEntity
  8
0
 62
2
100
AcDbLine
 10
487.89200986622359
 20
1067.8469395457892
 30
0
 11
487.89200986627748
 21
1113.6342175823904
 31
0
  0
LINE
  5
B2
330
1F
100
AcDbEntity
  8
0
 62
2
100
AcDbLine
 10
487.89200986627748
 20
1113.6342175823904
 30
0
 11
490.89200986628157
 21
1116.6342175823904
 31
0
  0
LINE
  5
B3
330
1F
100
AcDbEntity
  8
0
 62
2
100
AcDbLine
 10
490.89200986628157
 20
1116.6342175823904
 30
0
 11
490.89200986633455
 21
1159.6342175823904
 31
0
  0
LINE
  5
B4
330
1F
100
AcDbEntity
  8
0
 62
2
100
AcDbLine
 10
490.89200986633455
 20
1159.6342175823904
 30
0
 11
458.89200986633455
 21
1159.6342175823904
 31
0
  0
LINE
  5
B5
330
1F
100
AcDbEntity
  8
0
 62
2
100
AcDbLine
 10
458.89200986633455
 20
1159.6342175823904
 30
0
 11
458.89200986628157
 21
1116.6342175823904
 31
0
  0
LINE
  5
B6
330
1F
100
AcDbEntity
  8
0
 62
2
100
AcDbLine
 10
458.89200986628157
 20
1116.6342175823904
 30
0
 11
461.89200986627748
 21
1113.6342175823904
 31
0
  0
LINE
  5
B7
330
1F
100
AcDbEntity
  8
0
 62
2
100
AcDbLine
 10
461.89200986627748
 20
1113.6342175823904
 30
0
 11
461.89200986622336
 21
1067.8469395457892
 31
0
  0
ARC
  5
B8
330
1F
100
AcDbEntity
  8
0
 62
2
100
AcDbCircle
 10
513.89200986892956
 20
1067.8469395484958
 30
0
 40
52.0000000027066
100
AcDbArc
 50
180.00000000298229
 51
269.99999999701839
  0
LINE
  5
B9
330
1F
100
AcDbEntity
  8
0
 62
2
100
AcDbLine
 10
513.89200986622359
 20
1015.8469395457893
 30
0
 11
628.02800986622356
 21
1015.8469395457893
 31
0
  0
ARC
  5
BA
330
1F
100
AcDbEntity
  8
0
 62
2
100
AcDbCircle
 10
628.02800984841156
 20
989.84693947856738
 30
0
 40
26.0000000672217
100
AcDbArc
 50
62.655635558259085
 51
89.999999960747985
  0
LINE
  5
BB
330
1F
100
AcDbEntity
  8
0
 62
2
100
AcDbLine
 10
639.97078431262184
 20
1012.9417471545917
 30
0
 11
704.14246095032217
 21
979.7573243378888
 31
0
  0
ARC
  5
BC
330
1F
100
AcDbEntity
  8
0
 62
2
100
AcDbCircle
 10
728.02801697328823
 20
1025.9469377755122
 30
0
 40
52.0000016927244
100
AcDbArc
 50
242.65562764573292
 51
269.99999216913852
  0
LINE
  5
BD
330
1F
100
AcDbEntity
  8
0
 62
2
100
AcDbLine
 10
935.86400009951808
 20
967.9469360827884
 30
0
 11
705.90808233611813
 21
967.94693608318983
 31
0
  0
LINE
  5
BE
330
1F
100
AcDbEntity
  8
0
 62
2
100
AcDbLine
 10
705.90808233611813
 20
967.94693608318983
 30
0
 11
702.90808233612336
 21
970.946936083195
 31
0
  0
LINE
  5
BF
330
1F
100
AcDbEntity
  8
0
 62
2
100
AcDbLine
 10
702.90808233612336
 20
970.946936083195
 30
0
 11
659.90808233612336
 21
970.94693608327009
 31
0
  0
LINE
  5
C0
330
1F
100
AcDbEntity
  8
0
 62
2
100
AcDbLine
 10
659.90808233612336
 20
970.94693608327009
 30
0
 11
659.90808233606754
 21
938.94693608327009
 31
0
  0
LINE
  5
C1
330
1F
100
AcDbEntity
  8
0
 62
2
100
AcDbLine
 10
659.90808233606754
 20
938.94693608327009
 30
0
 11
702.90808233606754
 21
938.946936083195
 31
0
  0
LINE
  5
C2
330
1F
100
AcDbEntity
  8
0
 62
2
100
AcDbLine
 10
702.90808233606754
 20
938.946936083195
 30
0
 11
705.90808233607277
 21
941.94693608318983
 31
0
  0
LINE
  5
C3
330
1F
100
AcDbEntity
  8
0
 62
2
100
AcDbLine
 10
705.90808233607277
 20
941.94693608318983
 30
0
 11
935.86400009947283
 21
941.94693261978546
 31
0
  0
ARC
  5
C4
330
1F
100
AcDbEntity
  8
0
 62
2
100
AcDbCircle
 10
935.86400010540251
 20
915.94693264587909
 30
0
 40
25.9999999739064
100
AcDbArc
 50
62.655635494697812
 51
90.000000013067137
  0
LINE
  5
C5
330
1F
100
AcDbEntity
  8
0
 62
2
100
AcDbLine
 10
947.80677455236969
 20
939.04174022576581
 30
0
 11
1011.9784511889225
 21
905.85731740969311
 31
0
  0
ARC
  5
C6
330
1F
100
AcDbEntity
  8
0
 62
2
100
AcDbCircle
 10
1035.8640000994558
 20
952.04693261943578
 30
0
 40
51.9999999998227
100
AcDbArc
 50
242.6556355037423
 51
269.9999999999381
  0
LINE
  5
C7
330
1F
100
AcDbEntity
  8
0
 62
2
100
AcDbLine
 10
1035.8640000993996
 20
900.046932619613
 30
0
 11
1150.0000000993996
 21
900.04693261941384
 31
0
  0
ARC
  5
C8
330
1F
100
AcDbEntity
  8
0
 62
2
100
AcDbCircle
 10
1150.0000000981493
 20
874.04693261820807
 30
0
 40
26.0000000012057
100
AcDbArc
 50
2.5571581347204902E-09
 51
89.999999997244672
  0
LINE
  5
C9
330
1F
100
AcDbEntity
  8
0
 62
2
100
AcDbLine
 10
1176.0000000993541
 20
874.04693261936848
 30
0
 11
1176.0000000992202
 21
828.25965458276733
 31
0
  0
LINE
  5
CA
330
1F
100
AcDbEntity
  8
0
 62
2
100
AcDbLine
 10
1176.0000000992202
 20
828.25965458276733
 30
0
 11
1173.0000000992111
 21
825.25965458277255
 31
0
  0
LINE
  5
CB
330
1F
100
AcDbEntity
  8
0
 62
2
100
AcDbLine
 10
1173.0000000992111
 20
825.25965458277255
 30
0
 11
1173.0000000990831
 21
782.25965458277255
 31
0
  0
LINE
  5
CC
330
1F
100
AcDbEntity
  8
0
 62
2
100
AcDbLine
 10
1173.0000000990831
 20
782.25965458277255
 30
0
 11
1205.0000000990831
 21
782.25965458271662
 31
0
  0
LINE
  5
CD
330
1F
100
AcDbEntity
  8
0
 62
2
100
AcDbLine
 10
1205.0000000990831
 20
782.25965458271662
 30
0
 11
1205.0000000992111
 21
825.25965458271662
 31
0
  0
LINE
  5
CE
330
1F
100
AcDbEntity
  8
0
 62
2
100
AcDbLine
 10
1205.0000000992111
 20
825.25965458271662
 30
0
 11
1202.0000000992202
 21
828.25965458272185
 31
0
  0
LINE
  5
CF
330
1F
100
AcDbEntity
  8
0
 62
2
100
AcDbLine
 10
1202.0000000992202
 20
828.25965458272185
 30
0
 11
1202.0000000993543
 21
874.04693261932312
 31
0
  0
ARC
  5
D0
330
1F
100
AcDbEntity
  8
0
 62
2
100
AcDbCircle
 10
1150.0000000966481
 20
874.04693261670718
 30
0
 40
52.0000000027066
100
AcDbArc
 50
2.8823458743794934E-09
 51
89.999999996918234
  0
LINE
  5
D1
330
1F
100
AcDbEntity
  8
0
 62
2
100
AcDbLine
 10
1150.0000000994451
 20
926.04693261941384
 30
0
 11
1035.8640000994451
 21
926.046932619613
 31
0
  0
ARC
  5
D2
330
1F
100
AcDbEntity
  8
0
 62
2
100
AcDbCircle
 10
1035.8640001173023
 20
952.04693268683479
 30
0
 40
26.0000000672217
100
AcDbArc
 50
242.65563555815913
 51
269.99999996064827
  0
LINE
  5
D3
330
1F
100
AcDbEntity
  8
0
 62
2
100
AcDbLine
 10
1023.9212256530518
 20
928.95212501083142
 30
0
 11
959.74954901540934
 21
962.13654782764627
 31
0
  0
ARC
  5
D4
330
1F
100
AcDbEntity
  8
0
 62
2
100
AcDbCircle
 10
935.86399299236268
 20
915.94693439006448
 30
0
 40
52.0000016927244
100
AcDbArc
 50
62.655627645632961
 51
89.999992169038549
  0
LINE
  5
D5
330
1F
100
AcDbEntity
  8
0
 62
2
100
AcDbLine
 10
895.20083494957294
 20
932.16191308278837
 30
0
 11
665.27994058625779
 21
928.14862894372413
 31
0
  0
LINE
  5
D6
330
1F
100
AcDbEntity
  8
0
 62
2
100
AcDbLine
 10
665.27994058625779
 20
928.14862894372413
 30
0
 11
662.228040281482
 21
931.09581480988675
 31
0
  0
LINE
  5
D7
330
1F
100
AcDbEntity
  8
0
 62
2
100
AcDbLine
 10
662.228040281482
 20
931.09581480988675
 30
0
 11
619.23458938975591
 21
930.34536133315862
 31
0
  0
LINE
  5
D8
330
1F
100
AcDbEntity
  8
0
 62
2
100
AcDbLine
 10
619.23458938975591
 20
930.34536133315862
 30
0
 11
619.793066395693
 21
898.35023508815311
 31
0
  0
LINE
  5
D9
330
1F
100
AcDbEntity
  8
0
 62
2
100
AcDbLine
 10
619.793066395693
 20
898.35023508815311
 30
0
 11
662.78651728741909
 21
899.10068856488124
 31
0
  0
LINE
  5
DA
330
1F
100
AcDbEntity
  8
0
 62
2
100
AcDbLine
 10
662.78651728741909
 20
899.10068856488124
 30
0
 11
665.73370315358181
 21
902.15258886965717
 31
0
  0
LINE
  5
DB
330
1F
100
AcDbEntity
  8
0
 62
2
100
AcDbLine
 10
665.73370315358181
 20
902.15258886965717
 30
0
 11
895.6545975773347
 21
906.165869546246
 31
0
  0
ARC
  5
DC
330
1F
100
AcDbEntity
  8
0
 62
2
100
AcDbCircle
 10
896.10836015017753
 20
880.16982949837291
 30
0
 40
25.9999999739064
100
AcDbArc
 50
63.655635494697691
 51
91.000000013067321
  0
LINE
  5
DD
330
1F
100
AcDbEntity
  8
0
 62
2
100
AcDbLine
 10
907.64625568627537
 20
903.46954978084034
 30
0
 11
972.38730670002667
 21
871.41013129551789
 31
0
  0
ARC
  5
DE
330
1F
100
AcDbEntity
  8
0
 62
2
100
AcDbCircle
 10
995.46309778794637
 20
918.00957191070393
 30
0
 40
51.9999999998227
100
AcDbArc
 50
243.65563550374245
 51
270.99999999993815
  0
LINE
  5
DF
330
1F
100
AcDbEntity
  8
0
 62
2
100
AcDbLine
 10
996.3706229226259
 20
866.01749176274791
 30
0
 11
1110.4892394569993
 21
868.00943962367455
 31
0
  0
ARC
  5
E0
330
1F
100
AcDbEntity
  8
0
 62
2
100
AcDbCircle
 10
1110.9430020231396
 20
842.013399548381
 30
0
 40
26.0000000012057
100
AcDbArc
 50
1.0000000025570746
 51
90.999999997244757
  0
LINE
  5
E1
330
1F
100
AcDbEntity
  8
0
 62
2
100
AcDbLine
 10
1136.9390420983902
 20
842.4671621169316
 30
0
 11
1137.7381402842079
 21
796.68685770454874
 31
0
  0
LINE
  5
E2
330
1F
100
AcDbEntity
  8
0
 62
2
100
AcDbLine
 10
1137.7381402842079
 20
796.68685770454874
 30
0
 11
1134.7909544180413
 21
793.6349573997727
 31
0
  0
LINE
  5
E3
330
1F
100
AcDbEntity
  8
0
 62
2
100
AcDbLine
 10
1134.7909544180413
 20
793.6349573997727
 30
0
 11
1135.5414078947165
 21
750.64150650804572
 31
0
  0
LINE
  5
E4
330
1F
100
AcDbEntity
  8
0
 62
2
100
AcDbLine
 10
1135.5414078947165
 20
750.64150650804572
 30
0
 11
1167.5365341397221
 21
751.19998351398294
 31
0
  0
LINE
  5
E5
330
1F
100
AcDbEntity
  8
0
 62
2
100
AcDbLine
 10
1167.5365341397221
 20
751.19998351398294
 30
0
 11
1166.786080663047
 21
794.19343440571
 31
0
  0
LINE
  5
E6
330
1F
100
AcDbEntity
  8
0
 62
2
100
AcDbLine
 10
1166.786080663047
 20
794.19343440571
 30
0
 11
1163.7341803582749
 21
797.14062027187276
 31
0
  0
LINE
  5
E7
330
1F
100
AcDbEntity
  8
0
 62
2
100
AcDbLine
 10
1163.7341803582749
 20
797.14062027187276
 30
0
 11
1162.9350821724572
 21
842.92092468425562
 31
0
  0
ARC
  5
E8
330
1F
100
AcDbEntity
  8
0
 62
2
100
AcDbCircle
 10
1110.9430020216651
 20
842.0133995468542
 30
0
 40
52.0000000027066
100
AcDbArc
 50
1.0000000028822567
 51
90.9999999969186
  0
LINE
  5
E9
330
1F
100
AcDbEntity
  8
0
 62
2
100
AcDbLine
 10
1110.0354768896752
 20
894.00547969774152
 30
0
 11
995.91686035530188
 21
892.01353183681476
 31
0
  0
ARC
  5
EA
330
1F
100
AcDbEntity
  8
0
 62
2
100
AcDbCircle
 10
995.463097804614
 20
918.00957197840421
 30
0
 40
26.0000000672217
100
AcDbArc
 50
243.65563555815922
 51
270.999999960648
  0
LINE
  5
EB
330
1F
100
AcDbEntity
  8
0
 62
2
100
AcDbLine
 10
983.925202252913
 20
894.70985159953307
 30
0
 11
919.18415123805926
 21
926.76927008557857
 31
0
  0
ARC
  5
EC
330
1F
100
AcDbEntity
  8
0
 62
2
100
AcDbCircle
 10
896.10835300778092
 20
880.169831118153
 30
0
 40
52.0000016927244
100
AcDbArc
 50
63.655627645633039
 51
90.999992169038634
  0
LINE
  5
ED
330
1F
100
AcDbEntity
  8
0
 62
2
100
AcDbLine
 10
855.16839769108356
 20
895.67267140904517
 30
0
 11
625.35256285957
 21
887.64732561574181
 31
0
  0
LINE
  5
EE
330
1F
100
AcDbEntity
  8
0
 62
2
100
AcDbLine
 10
625.35256285957
 20
887.64732561574181
 30
0
 11
622.24969188841021
 21
890.540799606697
 31
0
  0
LINE
  5
EF
330
1F
100
AcDbEntity
  8
0
 62
2
100
AcDbLine
 10
622.24969188841021
 20
890.540799606697
 30
0
 11
579.27588632658649
 21
889.04012124856445
 31
0
  0
LINE
  5
F0
330
1F
100
AcDbEntity
  8
0
 62
2
100
AcDbLine
 10
579.27588632658649
 20
889.04012124856445
 30
0
 11
580.39267022101069
 21
857.05961478395147
 31
0
  0
LINE
  5
F1
330
1F
100
AcDbEntity
  8
0
 62
2
100
AcDbLine
 10
580.39267022101069
 20
857.05961478395147
 30
0
 11
623.36647578283453
 21
858.560293142084
 31
0
  0
LINE
  5
F2
330
1F
100
AcDbEntity
  8
0
 62
2
100
AcDbLine
 10
623.36647578283453
 20
858.560293142084
 30
0
 11
626.25994977378969
 21
861.66316411324374
 31
0
  0
LINE
  5
F3
330
1F
100
AcDbEntity
  8
0
 62
2
100
AcDbLine
 10
626.25994977378969
 20
861.66316411324374
 30
0
 11
856.07578472616035
 21
869.68850644565373
 31
0
  0
ARC
  5
F4
330
1F
100
AcDbEntity
  8
0
 62
2
100
AcDbCircle
 10
856.98317164544085
 20
843.70434496944188
 30
0
 40
25.9999999739064
100
AcDbArc
 50
64.655635494697691
 51
92.000000013067279
  0
LINE
  5
F5
330
1F
100
AcDbEntity
  8
0
 62
2
100
AcDbLine
 10
868.11267371591885
 20
867.20188063398246
 30
0
 11
933.4033783555692
 21
836.27723208884754
 31
0
  0
ARC
  5
F6
330
1F
100
AcDbEntity
  8
0
 62
2
100
AcDbCircle
 10
955.66238251136986
 20
883.27230346844669
 30
0
 40
51.9999999998227
100
AcDbArc
 50
244.65563550374242
 51
271.99999999993815
  0
LINE
  5
F7
330
1F
100
AcDbEntity
  8
0
 62
2
100
AcDbLine
 10
957.47715633983762
 20
831.30398046362893
 30
0
 11
1071.5436277724962
 21
835.28726941906655
 31
0
  0
ARC
  5
F8
330
1F
100
AcDbEntity
  8
0
 62
2
100
AcDbCircle
 10
1072.4510146855537
 20
809.30310791532145
 30
0
 40
26.0000000012057
100
AcDbArc
 50
2.0000000025568907
 51
91.999999997244615
  0
LINE
  5
F9
330
1F
100
AcDbEntity
  8
0
 62
2
100
AcDbLine
 10
1098.4351761892137
 20
810.21049483078809
 30
0
 11
1100.0331291479349
 21
764.45110916683132
 31
0
  0
LINE
  5
FA
330
1F
100
AcDbEntity
  8
0
 62
2
100
AcDbLine
 10
1100.0331291479349
 20
764.45110916683132
 30
0
 11
1097.1396551569758
 21
761.34823819567146
 31
0
  0
LINE
  5
FB
330
1F
100
AcDbEntity
  8
0
 62
2
100
AcDbLine
 10
1097.1396551569758
 20
761.34823819567146
 30
0
 11
1098.6403335150553
 21
718.3744326338458
 31
0
  0
LINE
  5
FC
330
1F
100
AcDbEntity
  8
0
 62
2
100
AcDbLine
 10
1098.6403335150553
 20
718.3744326338458
 30
0
 11
1130.6208399796683
 21
719.49121652827012
 31
0
  0
LINE
  5
FD
330
1F
100
AcDbEntity
  8
0
 62
2
100
AcDbLine
 10
1130.6208399796683
 20
719.49121652827012
 30
0
 11
1129.1201616215887
 21
762.46502209009566
 31
0
  0
LINE
  5
FE
330
1F
100
AcDbEntity
  8
0
 62
2
100
AcDbLine
 10
1129.1201616215887
 20
762.46502209009566
 30
0
 11
1126.0172906504329
 21
765.358496081051
 31
0
  0
LINE
  5
FF
330
1F
100
AcDbEntity
  8
0
 62
2
100
AcDbLine
 10
1126.0172906504329
 20
765.358496081051
 30
0
 11
1124.4193376917119
 21
811.11788174500782
 31
0
  0
ARC
  5
100
330
1F
100
AcDbEntity
  8
0
 62
2
100
AcDbCircle
 10
1072.4510146841058
 20
809.303107913769
 30
0
 40
52.0000000027066
100
AcDbArc
 50
2.0000000028822731
 51
91.99999999691839
  0
LINE
  5
101
330
1F
100
AcDbEntity
  8
0
 62
2
100
AcDbLine
 10
1070.6362408582763
 20
861.27143092156462
 30
0
 11
956.569769425618
 21
857.288141966127
 31
0
  0
ARC
  5
102
330
1F
100
AcDbEntity
  8
0
 62
2
100
AcDbCircle
 10
955.66238252685343
 20
883.27230353642756
 30
0
 40
26.0000000672217
100
AcDbArc
 50
244.65563555815916
 51
271.99999996064804
  0
LINE
  5
103
330
1F
100
AcDbEntity
  8
0
 62
2
100
AcDbLine
 10
944.5328804424571
 20
859.77476777522565
 30
0
 11
879.24217580169181
 21
890.69941632106429
 31
0
  0
ARC
  5
104
330
1F
100
AcDbEntity
  8
0
 62
2
100
AcDbCircle
 10
856.983164475863
 20
843.70434646432329
 30
0
 40
52.0000016927244
100
AcDbArc
 50
64.655627645633018
 51
91.99999216903862
  0
LINE
  5
105
330
1F
100
AcDbEntity
  8
0
 62
2
100
AcDbLine
 10
808.723612274658
 20
787.31011239584348
 30
0
 11
1038.5394471061575
 21
795.33545818954781
 31
0
  0
LINE
  5
106
330
1F
100
AcDbEntity
  8
0
 62
2
100
AcDbLine
 10
1038.5394471061575
 20
795.33545818954781
 30
0
 11
1041.6423180773222
 21
792.44198419859811
 31
0
  0
LINE
  5
107
330
1F
100
AcDbEntity
  8
0
 62
2
100
AcDbLine
 10
1041.6423180773222
 20
792.44198419859811
 30
0
 11
1084.6161236391433
 21
793.94266255680554
 31
0
  0
LINE
  5
108
330
1F
100
AcDbEntity
  8
0
 62
2
100
AcDbLine
 10
1084.6161236391433
 20
793.94266255680554
 30
0
 11
1083.4993397446633
 21
825.9231690214167
 31
0
  0
LINE
  5
109
330
1F
100
AcDbEntity
  8
0
 62
2
100
AcDbLine
 10
1083.4993397446633
 20
825.9231690214167
 30
0
 11
1040.5255341828422
 21
824.42249066320915
 31
0
  0
LINE
  5
10A
330
1F
100
AcDbEntity
  8
0
 62
2
100
AcDbLine
 10
1040.5255341828422
 20
824.42249066320915
 30
0
 11
1037.6320601918924
 21
821.31961969204428
 31
0
  0
LINE
  5
10B
330
1F
100
AcDbEntity
  8
0
 62
2
100
AcDbLine
 10
1037.6320601918924
 20
821.31961969204428
 30
0
 11
807.81622523953592
 21
813.29427735923332
 31
0
  0
ARC
  5
10C
330
1F
100
AcDbEntity
  8
0
 62
2
100
AcDbCircle
 10
806.90883832021007
 20
839.27843883544358
 30
0
 40
25.9999999739064
100
AcDbArc
 50
244.65563549479754
 51
272.00000001316727
  0
LINE
  5
10D
330
1F
100
AcDbEntity
  8
0
 62
2
100
AcDbLine
 10
795.779336249773
 20
815.78090317088356
 30
0
 11
730.48863161006875
 21
846.70555171590456
 31
0
  0
ARC
  5
10E
330
1F
100
AcDbEntity
  8
0
 62
2
100
AcDbCircle
 10
708.22962745435007
 20
799.71048033626664
 30
0
 40
51.9999999998227
100
AcDbArc
 50
64.655635503842333
 51
92.000000000038185
  0
LINE
  5
10F
330
1F
100
AcDbEntity
  8
0
 62
2
100
AcDbLine
 10
706.41485362579158
 20
851.67880334108122
 30
0
 11
592.34838219314
 21
847.69551438544454
 31
0
  0
ARC
  5
110
330
1F
100
AcDbEntity
  8
0
 62
2
100
AcDbCircle
 10
591.4409952800371
 20
873.679675889188
 30
0
 40
26.0000000012057
100
AcDbArc
 50
182.00000000265689
 51
271.99999999734462
  0
LINE
  5
111
330
1F
100
AcDbEntity
  8
0
 62
2
100
AcDbLine
 10
565.45683377637852
 20
872.772288973676
 30
0
 11
563.85888081757764
 21
918.53167463763009
 31
0
  0
LINE
  5
112
330
1F
100
AcDbEntity
  8
0
 62
2
100
AcDbLine
 10
563.85888081757764
 20
918.53167463763009
 30
0
 11
566.75235480853132
 21
921.634545608795
 31
0
  0
LINE
  5
113
330
1F
100
AcDbEntity
  8
0
 62
2
100
AcDbLine
 10
566.75235480853132
 20
921.634545608795
 30
0
 11
565.25167645037686
 21
964.608351170618
 31
0
  0
LINE
  5
114
330
1F
100
AcDbEntity
  8
0
 62
2
100
AcDbLine
 10
565.25167645037686
 20
964.608351170618
 30
0
 11
533.27116998576571
 21
963.491567276138
 31
0
  0
LINE
  5
115
330
1F
100
AcDbEntity
  8
0
 62
2
100
AcDbLine
 10
533.27116998576571
 20
963.491567276138
 30
0
 11
534.77184834392028
 21
920.51776171431493
 31
0
  0
LINE
  5
116
330
1F
100
AcDbEntity
  8
0
 62
2
100
AcDbLine
 10
534.77184834392028
 20
920.51776171431493
 30
0
 11
537.874719315081
 21
917.624287723365
 31
0
  0
LINE
  5
117
330
1F
100
AcDbEntity
  8
0
 62
2
100
AcDbLine
 10
537.874719315081
 20
917.624287723365
 30
0
 11
539.47267227388181
 21
871.864902059411
 31
0
  0
ARC
  5
118
330
1F
100
AcDbEntity
  8
0
 62
2
100
AcDbCircle
 10
591.44099528148479
 20
873.67967589074044
 30
0
 40
52.0000000027066
100
AcDbArc
 50
182.00000000298229
 51
271.99999999701839
  0
LINE
  5
119
330
1F
100
AcDbEntity
  8
0
 62
2
100
AcDbLine
 10
593.255769107405
 20
821.71135288294806
 30
0
 11
707.32224054005655
 21
825.69464183858474
 31
0
  0
ARC
  5
11A
330
1F
100
AcDbEntity
  8
0
 62
2
100
AcDbCircle
 10
708.22962743886649
 20
799.71048026828578
 30
0
 40
26.0000000672217
100
AcDbArc
 50
64.655635558259149
 51
91.999999960748085
  0
LINE
  5
11B
330
1F
100
AcDbEntity
  8
0
 62
2
100
AcDbLine
 10
719.35912952322178
 20
823.208016029507
 30
0
 11
784.64983416404107
 21
792.2833674837824
 31
0
  0
ARC
  5
11C
330
1F
100
AcDbEntity
  8
0
 62
2
100
AcDbCircle
 10
806.908845489788
 20
839.27843734056216
 30
0
 40
52.0000016927244
100
AcDbArc
 50
244.65562764573289
 51
271.99999216913847
  0
LINE
  5
11D
330
1F
100
AcDbEntity
  8
0
 62
2
100
AcDbLine
 10
768.69117501616847
 20
750.82087072210015
 30
0
 11
998.61206937947668
 21
754.83415486156559
 31
0
  0
LINE
  5
11E
330
1F
100
AcDbEntity
  8
0
 62
2
100
AcDbLine
 10
998.61206937947668
 20
754.83415486156559
 30
0
 11
1001.6639696842577
 21
751.88696899540821
 31
0
  0
LINE
  5
11F
330
1F
100
AcDbEntity
  8
0
 62
2
100
AcDbLine
 10
1001.6639696842577
 20
751.88696899540821
 30
0
 11
1044.6574205759825
 21
752.63742247221137
 31
0
  0
LINE
  5
120
330
1F
100
AcDbEntity
  8
0
 62
2
100
AcDbLine
 10
1044.6574205759825
 20
752.63742247221137
 30
0
 11
1044.0989435699894
 21
784.632548717216
 31
0
  0
LINE
  5
121
330
1F
100
AcDbEntity
  8
0
 62
2
100
AcDbLine
 10
1044.0989435699894
 20
784.632548717216
 30
0
 11
1001.1054926782647
 21
783.8820952404127
 31
0
  0
LINE
  5
122
330
1F
100
AcDbEntity
  8
0
 62
2
100
AcDbLine
 10
1001.1054926782647
 20
783.8820952404127
 30
0
 11
998.1583068121073
 21
780.83019493563177
 31
0
  0
LINE
  5
123
330
1F
100
AcDbEntity
  8
0
 62
2
100
AcDbLine
 10
998.1583068121073
 20
780.83019493563177
 30
0
 11
768.23741238836146
 21
776.81691425864176
 31
0
  0
ARC
  5
124
330
1F
100
AcDbEntity
  8
0
 62
2
100
AcDbCircle
 10
767.78364981547327
 20
802.812954306514
 30
0
 40
25.9999999739064
100
AcDbArc
 50
243.65563549479774
 51
271.00000001316727
  0
LINE
  5
125
330
1F
100
AcDbEntity
  8
0
 62
2
100
AcDbLine
 10
756.24575427941613
 20
779.51323402402647
 30
0
 11
691.50470326560867
 21
811.57265250923592
 31
0
  0
ARC
  5
126
330
1F
100
AcDbEntity
  8
0
 62
2
100
AcDbCircle
 10
668.42891217777026
 20
764.97321189400964
 30
0
 40
51.9999999998227
100
AcDbArc
 50
63.655635503842369
 51
91.000000000038142
  0
LINE
  5
127
330
1F
100
AcDbEntity
  8
0
 62
2
100
AcDbLine
 10
667.521387043
 20
816.96529204196418
 30
0
 11
553.40277050863017
 21
814.97334418083835
 31
0
  0
ARC
  5
128
330
1F
100
AcDbEntity
  8
0
 62
2
100
AcDbCircle
 10
552.94900794244461
 20
840.96938425613109
 30
0
 40
26.0000000012057
100
AcDbArc
 50
181.00000000265706
 51
270.99999999734445
  0
LINE
  5
129
330
1F
100
AcDbEntity
  8
0
 62
2
100
AcDbLine
 10
526.95296786719462
 20
840.51562168753514
 30
0
 11
526.153869681297
 21
886.29592609991664
 31
0
  0
LINE
  5
12A
330
1F
100
AcDbEntity
  8
0
 62
2
100
AcDbLine
 10
526.153869681297
 20
886.29592609991664
 30
0
 11
529.10105554745826
 21
889.3478264046978
 31
0
  0
LINE
  5
12B
330
1F
100
AcDbEntity
  8
0
 62
2
100
AcDbLine
 10
529.10105554745826
 20
889.3478264046978
 30
0
 11
528.35060207070819
 21
932.34127729642353
 31
0
  0
LINE
  5
12C
330
1F
100
AcDbEntity
  8
0
 62
2
100
AcDbLine
 10
528.35060207070819
 20
932.34127729642353
 30
0
 11
496.35547582570371
 21
931.78280029043049
 31
0
  0
LINE
  5
12D
330
1F
100
AcDbEntity
  8
0
 62
2
100
AcDbLine
 10
496.35547582570371
 20
931.78280029043049
 30
0
 11
497.10592930245377
 21
888.78934939870464
 31
0
  0
LINE
  5
12E
330
1F
100
AcDbEntity
  8
0
 62
2
100
AcDbLine
 10
497.10592930245377
 20
888.78934939870464
 30
0
 11
500.15782960723084
 21
885.84216353254726
 31
0
  0
LINE
  5
12F
330
1F
100
AcDbEntity
  8
0
 62
2
100
AcDbLine
 10
500.15782960723084
 20
885.84216353254726
 30
0
 11
500.95692779312833
 21
840.06185912016576
 31
0
  0
ARC
  5
130
330
1F
100
AcDbEntity
  8
0
 62
2
100
AcDbCircle
 10
552.94900794391913
 20
840.96938425765791
 30
0
 40
52.0000000027066
100
AcDbArc
 50
181.00000000298223
 51
270.99999999701845
  0
LINE
  5
131
330
1F
100
AcDbEntity
  8
0
 62
2
100
AcDbLine
 10
553.85653307599955
 20
788.97730410677218
 30
0
 11
667.97514961036939
 21
790.969251967898
 31
0
  0
ARC
  5
132
330
1F
100
AcDbEntity
  8
0
 62
2
100
AcDbCircle
 10
668.42891216110263
 20
764.97321182630935
 30
0
 40
26.0000000672217
100
AcDbArc
 50
63.655635558259064
 51
90.999999960747942
  0
LINE
  5
133
330
1F
100
AcDbEntity
  8
0
 62
2
100
AcDbLine
 10
679.966807712763
 20
788.27293220520062
 30
0
 11
744.70785872767283
 21
756.21351371926812
 31
0
  0
ARC
  5
134
330
1F
100
AcDbEntity
  8
0
 62
2
100
AcDbCircle
 10
767.78365695786988
 20
802.812952686734
 30
0
 40
52.0000016927244
100
AcDbArc
 50
243.65562764573295
 51
270.99999216913852
  0
LINE
  5
135
330
1F
100
AcDbEntity
  8
0
 62
2
100
AcDbLine
 10
728.02800986622344
 20
715.03584772210013
 30
0
 11
957.98392762962339
 21
715.03584772210013
 31
0
  0
LINE
  5
136
330
1F
100
AcDbEntity
  8
0
 62
2
100
AcDbLine
 10
957.98392762962339
 20
715.03584772210013
 30
0
 11
960.98392762962339
 21
712.03584772210013
 31
0
  0
LINE
  5
137
330
1F
100
AcDbEntity
  8
0
 62
2
100
AcDbLine
 10
960.98392762962339
 20
712.03584772210013
 30
0
 11
1003.9839276296234
 21
712.03584772210013
 31
0
  0
LINE
  5
138
330
1F
100
AcDbEntity
  8
0
 62
2
100
AcDbLine
 10
1003.9839276296234
 20
712.03584772210013
 30
0
 11
1003.9839276296234
 21
744.03584772210013
 31
0
  0
LINE
  5
139
330
1F
100
AcDbEntity
  8
0
 62
2
100
AcDbLine
 10
1003.9839276296234
 20
744.03584772210013
 30
0
 11
960.98392762962339
 21
744.03584772210013
 31
0
  0
LINE
  5
13A
330
1F
100
AcDbEntity
  8
0
 62
2
100
AcDbLine
 10
960.98392762962339
 20
744.03584772210013
 30
0
 11
957.98392762962339
 21
741.03584772210013
 31
0
  0
LINE
  5
13B
330
1F
100
AcDbEntity
  8
0
 62
2
100
AcDbLine
 10
957.98392762962339
 20
741.03584772210013
 30
0
 11
728.02800986622344
 21
741.03585118510307
 31
0
  0
ARC
  5
13C
330
1F
100
AcDbEntity
  8
0
 62
2
100
AcDbCircle
 10
728.0280098602484
 20
767.03585115900944
 30
0
 40
25.9999999739064
100
AcDbArc
 50
242.65563549479756
 51
270.0000000131671
  0
LINE
  5
13D
330
1F
100
AcDbEntity
  8
0
 62
2
100
AcDbLine
 10
716.08523541332136
 20
743.9410435791018
 30
0
 11
651.9135587767106
 21
777.12546639506252
 31
0
  0
ARC
  5
13E
330
1F
100
AcDbEntity
  8
0
 62
2
100
AcDbCircle
 10
628.028009866258
 20
730.93585118527824
 30
0
 40
51.9999999998227
100
AcDbArc
 50
62.655635503842369
 51
90.0000000000382
  0
LINE
  5
13F
330
1F
100
AcDbEntity
  8
0
 62
2
100
AcDbLine
 10
628.02800986622333
 20
782.93585118510089
 30
0
 11
513.89200986622336
 21
782.935851185101
 31
0
  0
ARC
  5
140
330
1F
100
AcDbEntity
  8
0
 62
2
100
AcDbCircle
 10
513.89200986742833
 20
808.93585118630665
 30
0
 40
26.0000000012057
100
AcDbArc
 50
180.00000000265686
 51
269.99999999734462
  0
LINE
  5
141
330
1F
100
AcDbEntity
  8
0
 62
2
100
AcDbLine
 10
487.89200986622336
 20
808.935851185101
 30
0
 11
487.89200986627736
 21
854.72312922170215
 31
0
  0
LINE
  5
142
330
1F
100
AcDbEntity
  8
0
 62
2
100
AcDbLine
 10
487.89200986627736
 20
854.72312922170215
 30
0
 11
490.89200986628134
 21
857.72312922170215
 31
0
  0
LINE
  5
143
330
1F
100
AcDbEntity
  8
0
 62
2
100
AcDbLine
 10
490.89200986628134
 20
857.72312922170215
 30
0
 11
490.89200986633432
 21
900.72312922170215
 31
0
  0
LINE
  5
144
330
1F
100
AcDbEntity
  8
0
 62
2
100
AcDbLine
 10
490.89200986633432
 20
900.72312922170215
 30
0
 11
458.89200986633432
 21
900.72312922170215
 31
0
  0
LINE
  5
145
330
1F
100
AcDbEntity
  8
0
 62
2
100
AcDbLine
 10
458.89200986633432
 20
900.72312922170215
 30
0
 11
458.89200986628134
 21
857.72312922170215
 31
0
  0
LINE
  5
146
330
1F
100
AcDbEntity
  8
0
 62
2
100
AcDbLine
 10
458.89200986628134
 20
857.72312922170215
 30
0
 11
461.89200986627736
 21
854.72312922170215
 31
0
  0
LINE
  5
147
330
1F
100
AcDbEntity
  8
0
 62
2
100
AcDbLine
 10
461.89200986627736
 20
854.72312922170215
 30
0
 11
461.89200986622325
 21
808.935851185101
 31
0
  0
ARC
  5
148
330
1F
100
AcDbEntity
  8
0
 62
2
100
AcDbCircle
 10
513.89200986892934
 20
808.93585118780754
 30
0
 40
52.0000000027066
100
AcDbArc
 50
180.00000000298218
 51
269.99999999701839
  0
LINE
  5
149
330
1F
100
AcDbEntity
  8
0
 62
2
100
AcDbLine
 10
513.89200986622336
 20
756.935851185101
 30
0
 11
628.02800986622333
 21
756.935851185101
 31
0
  0
ARC
  5
14A
330
1F
100
AcDbEntity
  8
0
 62
2
100
AcDbCircle
 10
628.02800984841133
 20
730.93585111787911
 30
0
 40
26.0000000672217
100
AcDbArc
 50
62.655635558259085
 51
89.999999960747985
  0
LINE
  5
14B
330
1F
100
AcDbEntity
  8
0
 62
2
100
AcDbLine
 10
639.97078431262162
 20
754.0306587939034
 30
0
 11
704.14246095032206
 21
720.84623597720054
 31
0
  0
ARC
  5
14C
330
1F
100
AcDbEntity
  8
0
 62
2
100
AcDbCircle
 10
728.02801697328812
 20
767.035849414824
 30
0
 40
52.0000016927244
100
AcDbArc
 50
242.65562764573295
 51
269.99999216913852
  0
LINE
  5
14D
330
1F
100
AcDbEntity
  8
0
 62
2
100
AcDbLine
 10
1202.0000000995178
 20
274.1360001
 30
0
 11
1202.0000000999191
 21
504.0919178634
 31
0
  0
LINE
  5
14E
330
1F
100
AcDbEntity
  8
0
 62
2
100
AcDbLine
 10
1202.0000000999191
 20
504.0919178634
 30
0
 11
1205.0000000999244
 21
507.09191786339477
 31
0
  0
LINE
  5
14F
330
1F
100
AcDbEntity
  8
0
 62
2
100
AcDbLine
 10
1205.0000000999244
 20
507.09191786339477
 30
0
 11
1205.0000000999994
 21
550.09191786339477
 31
0
  0
LINE
  5
150
330
1F
100
AcDbEntity
  8
0
 62
2
100
AcDbLine
 10
1205.0000000999994
 20
550.09191786339477
 30
0
 11
1173.0000000999994
 21
550.09191786345059
 31
0
  0
LINE
  5
151
330
1F
100
AcDbEntity
  8
0
 62
2
100
AcDbLine
 10
1173.0000000999994
 20
550.09191786345059
 30
0
 11
1173.0000000999244
 21
507.09191786345059
 31
0
  0
LINE
  5
152
330
1F
100
AcDbEntity
  8
0
 62
2
100
AcDbLine
 10
1173.0000000999244
 20
507.09191786345059
 30
0
 11
1176.0000000999191
 21
504.09191786344536
 31
0
  0
LINE
  5
153
330
1F
100
AcDbEntity
  8
0
 62
2
100
AcDbLine
 10
1176.0000000999191
 20
504.09191786344536
 30
0
 11
1175.9999966365151
 21
274.13600010004535
 31
0
  0
ARC
  5
154
330
1F
100
AcDbEntity
  8
0
 62
2
100
AcDbCircle
 10
1149.9999966626085
 20
274.13600009411562
 30
0
 40
25.9999999739064
100
AcDbArc
 50
332.65563549469783
 51
1.3067260968928788E-08
  0
LINE
  5
155
330
1F
100
AcDbEntity
  8
0
 62
2
100
AcDbLine
 10
1173.0948042424955
 20
262.19322564714832
 30
0
 11
1139.9103814264226
 21
198.02154901059555
 31
0
  0
ARC
  5
156
330
1F
100
AcDbEntity
  8
0
 62
2
100
AcDbCircle
 10
1186.0999966361653
 20
174.13600010006235
 30
0
 40
51.9999999998227
100
AcDbArc
 50
152.65563550374242
 51
179.99999999993818
  0
LINE
  5
157
330
1F
100
AcDbEntity
  8
0
 62
2
100
AcDbLine
 10
1134.0999966363427
 20
174.13600010011845
 30
0
 11
1134.0999966361435
 21
60.00000010011852
 31
0
  0
ARC
  5
158
330
1F
100
AcDbEntity
  8
0
 62
2
100
AcDbCircle
 10
1108.0999966349377
 20
60.000000101368848
 30
0
 40
26.0000000012057
100
AcDbArc
 50
270.00000000255693
 51
359.99999999724469
  0
LINE
  5
159
330
1F
100
AcDbEntity
  8
0
 62
2
100
AcDbLine
 10
1108.099996636098
 20
34.000000100163881
 30
0
 11
1062.312718599497
 21
34.000000100297775
 31
0
  0
LINE
  5
15A
330
1F
100
AcDbEntity
  8
0
 62
2
100
AcDbLine
 10
1062.312718599497
 20
34.000000100297775
 30
0
 11
1059.3127185995022
 21
37.000000100306984
 31
0
  0
LINE
  5
15B
330
1F
100
AcDbEntity
  8
0
 62
2
100
AcDbLine
 10
1059.3127185995022
 20
37.000000100306984
 30
0
 11
1016.3127185995021
 21
37.000000100435
 31
0
  0
LINE
  5
15C
330
1F
100
AcDbEntity
  8
0
 62
2
100
AcDbLine
 10
1016.3127185995021
 20
37.000000100435
 30
0
 11
1016.3127185994463
 21
5.000000100435
 31
0
  0
LINE
  5
15D
330
1F
100
AcDbEntity
  8
0
 62
2
100
AcDbLine
 10
1016.3127185994463
 20
5.000000100435
 30
0
 11
1059.3127185994463
 21
5.0000001003069858
 31
0
  0
LINE
  5
15E
330
1F
100
AcDbEntity
  8
0
 62
2
100
AcDbLine
 10
1059.3127185994463
 20
5.0000001003069858
 30
0
 11
1062.3127185994515
 21
8.0000001002977772
 31
0
  0
LINE
  5
15F
330
1F
100
AcDbEntity
  8
0
 62
2
100
AcDbLine
 10
1062.3127185994515
 20
8.0000001002977772
 30
0
 11
1108.0999966360528
 21
8.0000001001637386
 31
0
  0
ARC
  5
160
330
1F
100
AcDbEntity
  8
0
 62
2
100
AcDbCircle
 10
1108.0999966334368
 20
60.000000102869855
 30
0
 40
52.0000000027066
100
AcDbArc
 50
270.00000000288236
 51
359.9999999969184
  0
LINE
  5
161
330
1F
100
AcDbEntity
  8
0
 62
2
100
AcDbLine
 10
1160.0999966361435
 20
60.000000100073123
 30
0
 11
1160.0999966363427
 21
174.13600010007309
 31
0
  0
ARC
  5
162
330
1F
100
AcDbEntity
  8
0
 62
2
100
AcDbCircle
 10
1186.0999967035643
 20
174.13600008221573
 30
0
 40
26.0000000672217
100
AcDbArc
 50
152.65563555815891
 51
179.99999996064804
  0
LINE
  5
163
330
1F
100
AcDbEntity
  8
0
 62
2
100
AcDbLine
 10
1163.0051890275611
 20
186.07877454646632
 30
0
 11
1196.1896118443758
 21
250.25045118410875
 31
0
  0
ARC
  5
164
330
1F
100
AcDbEntity
  8
0
 62
2
100
AcDbCircle
 10
1149.999998406794
 20
274.13600720715539
 30
0
 40
52.0000016927244
100
AcDbArc
 50
332.655627645633
 51
359.99999216903853
  0
LINE
  5
165
330
1F
100
AcDbEntity
  8
0
 62
2
100
AcDbLine
 10
985.10744790462707
 20
441.63413713218677
 30
0
 11
989.12073204369108
 21
211.71324276887162
 31
0
  0
LINE
  5
166
330
1F
100
AcDbEntity
  8
0
 62
2
100
AcDbLine
 10
989.12073204369108
 20
211.71324276887162
 30
0
 11
986.17354617752846
 21
208.66134246409572
 31
0
  0
LINE
  5
167
330
1F
100
AcDbEntity
  8
0
 62
2
100
AcDbLine
 10
986.17354617752846
 20
208.66134246409572
 30
0
 11
986.92399965425659
 21
165.66789157236963
 31
0
  0
LINE
  5
168
330
1F
100
AcDbEntity
  8
0
 62
2
100
AcDbLine
 10
986.92399965425659
 20
165.66789157236963
 30
0
 11
1018.9191258992621
 21
166.22636857830685
 31
0
  0
LINE
  5
169
330
1F
100
AcDbEntity
  8
0
 62
2
100
AcDbLine
 10
1018.9191258992621
 20
166.22636857830685
 30
0
 11
1018.168672422534
 21
209.21981947003297
 31
0
  0
LINE
  5
16A
330
1F
100
AcDbEntity
  8
0
 62
2
100
AcDbLine
 10
1018.168672422534
 20
209.21981947003297
 30
0
 11
1015.116772117758
 21
212.16700533619561
 31
0
  0
LINE
  5
16B
330
1F
100
AcDbEntity
  8
0
 62
2
100
AcDbLine
 10
1015.116772117758
 20
212.16700533619561
 30
0
 11
1011.1034914411695
 21
442.08789975994853
 31
0
  0
ARC
  5
16C
330
1F
100
AcDbEntity
  8
0
 62
2
100
AcDbCircle
 10
1037.0995314890424
 20
442.5416623327913
 30
0
 40
25.9999999739064
100
AcDbArc
 50
153.65563549469758
 51
181.00000001306719
  0
LINE
  5
16D
330
1F
100
AcDbEntity
  8
0
 62
2
100
AcDbLine
 10
1013.7998112065751
 20
454.07955786888914
 30
0
 11
1045.8592296918976
 21
518.8206088826405
 31
0
  0
ARC
  5
16E
330
1F
100
AcDbEntity
  8
0
 62
2
100
AcDbCircle
 10
999.25978907671151
 20
541.8963999705602
 30
0
 40
51.9999999998227
100
AcDbArc
 50
333.65563550374242
 51
0.99999999993815691
  0
LINE
  5
16F
330
1F
100
AcDbEntity
  8
0
 62
2
100
AcDbLine
 10
1051.2518692246676
 20
542.80392510523973
 30
0
 11
1049.2599213637409
 21
656.922541639613
 31
0
  0
ARC
  5
170
330
1F
100
AcDbEntity
  8
0
 62
2
100
AcDbCircle
 10
1075.2559614390345
 20
657.37630420575329
 30
0
 40
26.0000000012057
100
AcDbArc
 50
91.000000002556817
 51
180.99999999724474
  0
LINE
  5
171
330
1F
100
AcDbEntity
  8
0
 62
2
100
AcDbLine
 10
1074.8021988704841
 20
683.372344281004
 30
0
 11
1120.5825032828668
 21
684.17144246682176
 31
0
  0
LINE
  5
172
330
1F
100
AcDbEntity
  8
0
 62
2
100
AcDbLine
 10
1120.5825032828668
 20
684.17144246682176
 30
0
 11
1123.6344035876427
 21
681.22425660065517
 31
0
  0
LINE
  5
173
330
1F
100
AcDbEntity
  8
0
 62
2
100
AcDbLine
 10
1123.6344035876427
 20
681.22425660065517
 30
0
 11
1166.62785447937
 21
681.97471007733031
 31
0
  0
LINE
  5
174
330
1F
100
AcDbEntity
  8
0
 62
2
100
AcDbLine
 10
1166.62785447937
 20
681.97471007733031
 30
0
 11
1166.0693774734327
 21
713.96983632233582
 31
0
  0
LINE
  5
175
330
1F
100
AcDbEntity
  8
0
 62
2
100
AcDbLine
 10
1166.0693774734327
 20
713.96983632233582
 30
0
 11
1123.0759265817055
 21
713.21938284566068
 31
0
  0
LINE
  5
176
330
1F
100
AcDbEntity
  8
0
 62
2
100
AcDbLine
 10
1123.0759265817055
 20
713.21938284566068
 30
0
 11
1120.1287407155428
 21
710.16748254088873
 31
0
  0
LINE
  5
177
330
1F
100
AcDbEntity
  8
0
 62
2
100
AcDbLine
 10
1120.1287407155428
 20
710.16748254088873
 30
0
 11
1074.34843630316
 21
709.36838435507116
 31
0
  0
ARC
  5
178
330
1F
100
AcDbEntity
  8
0
 62
2
100
AcDbCircle
 10
1075.2559614405614
 20
657.37630420427865
 30
0
 40
52.0000000027066
100
AcDbArc
 50
91.000000002882132
 51
180.99999999691846
  0
LINE
  5
179
330
1F
100
AcDbEntity
  8
0
 62
2
100
AcDbLine
 10
1023.263881289674
 20
656.468779072289
 30
0
 11
1025.2558291506007
 21
542.35016253791571
 31
0
  0
ARC
  5
17A
330
1F
100
AcDbEntity
  8
0
 62
2
100
AcDbCircle
 10
999.25978900901123
 20
541.89639998722782
 30
0
 40
26.0000000672217
100
AcDbArc
 50
333.655635558159
 51
0.99999996064795782
  0
LINE
  5
17B
330
1F
100
AcDbEntity
  8
0
 62
2
100
AcDbLine
 10
1022.5595093878824
 20
530.3585044355267
 30
0
 11
990.50009090183687
 21
465.61745342067303
 31
0
  0
ARC
  5
17C
330
1F
100
AcDbEntity
  8
0
 62
2
100
AcDbCircle
 10
1037.0995298692624
 20
442.54165519039464
 30
0
 40
52.0000016927244
100
AcDbArc
 50
153.65562764563293
 51
180.99999216903851
  0
LINE
  5
17D
330
1F
100
AcDbEntity
  8
0
 62
2
100
AcDbLine
 10
1021.5966895783703
 20
401.60169987369733
 30
0
 11
1029.6220353716735
 21
171.78586504218381
 31
0
  0
LINE
  5
17E
330
1F
100
AcDbEntity
  8
0
 62
2
100
AcDbLine
 10
1029.6220353716735
 20
171.78586504218381
 30
0
 11
1026.7285613807182
 21
168.6829940710241
 31
0
  0
LINE
  5
17F
330
1F
100
AcDbEntity
  8
0
 62
2
100
AcDbLine
 10
1026.7285613807182
 20
168.6829940710241
 30
0
 11
1028.229239738851
 21
125.70918850920033
 31
0
  0
LINE
  5
180
330
1F
100
AcDbEntity
  8
0
 62
2
100
AcDbLine
 10
1028.229239738851
 20
125.70918850920033
 30
0
 11
1060.209746203464
 21
126.82597240362459
 31
0
  0
LINE
  5
181
330
1F
100
AcDbEntity
  8
0
 62
2
100
AcDbLine
 10
1060.209746203464
 20
126.82597240362459
 30
0
 11
1058.7090678453314
 21
169.7997779654483
 31
0
  0
LINE
  5
182
330
1F
100
AcDbEntity
  8
0
 62
2
100
AcDbLine
 10
1058.7090678453314
 20
169.7997779654483
 30
0
 11
1055.6061968741717
 21
172.69325195640349
 31
0
  0
LINE
  5
183
330
1F
100
AcDbEntity
  8
0
 62
2
100
AcDbLine
 10
1055.6061968741717
 20
172.69325195640349
 30
0
 11
1047.5808545417617
 21
402.50908690877407
 31
0
  0
ARC
  5
184
330
1F
100
AcDbEntity
  8
0
 62
2
100
AcDbCircle
 10
1073.5650160179734
 20
403.41647382805456
 30
0
 40
25.9999999739064
100
AcDbArc
 50
154.65563549469758
 51
182.00000001306728
  0
LINE
  5
185
330
1F
100
AcDbEntity
  8
0
 62
2
100
AcDbLine
 10
1050.067480353433
 20
414.54597589853256
 30
0
 11
1080.9921288985679
 21
479.83668053818292
 31
0
  0
ARC
  5
186
330
1F
100
AcDbEntity
  8
0
 62
2
100
AcDbCircle
 10
1033.9970575189689
 20
502.09568469398357
 30
0
 40
51.9999999998227
100
AcDbArc
 50
334.65563550374236
 51
1.9999999999381546
  0
LINE
  5
187
330
1F
100
AcDbEntity
  8
0
 62
2
100
AcDbLine
 10
1085.9653805237865
 20
503.91045852245134
 30
0
 11
1081.982091568349
 21
617.97692995510977
 31
0
  0
ARC
  5
188
330
1F
100
AcDbEntity
  8
0
 62
2
100
AcDbCircle
 10
1107.9662530720941
 20
618.88431686816728
 30
0
 40
26.0000000012057
100
AcDbArc
 50
92.00000000255713
 51
181.9999999972446
  0
LINE
  5
189
330
1F
100
AcDbEntity
  8
0
 62
2
100
AcDbLine
 10
1107.0588661566273
 20
644.86847837182745
 30
0
 11
1152.8182518205842
 21
646.46643133054852
 31
0
  0
LINE
  5
18A
330
1F
100
AcDbEntity
  8
0
 62
2
100
AcDbLine
 10
1152.8182518205842
 20
646.46643133054852
 30
0
 11
1155.9211227917442
 21
643.57295733958938
 31
0
  0
LINE
  5
18B
330
1F
100
AcDbEntity
  8
0
 62
2
100
AcDbLine
 10
1155.9211227917442
 20
643.57295733958938
 30
0
 11
1198.8949283535696
 21
645.073635697669
 31
0
  0
LINE
  5
18C
330
1F
100
AcDbEntity
  8
0
 62
2
100
AcDbLine
 10
1198.8949283535696
 20
645.073635697669
 30
0
 11
1197.7781444591456
 21
677.054142162282
 31
0
  0
LINE
  5
18D
330
1F
100
AcDbEntity
  8
0
 62
2
100
AcDbLine
 10
1197.7781444591456
 20
677.054142162282
 30
0
 11
1154.80433889732
 21
675.55346380420235
 31
0
  0
LINE
  5
18E
330
1F
100
AcDbEntity
  8
0
 62
2
100
AcDbLine
 10
1154.80433889732
 20
675.55346380420235
 30
0
 11
1151.9108649063646
 21
672.45059283304658
 31
0
  0
LINE
  5
18F
330
1F
100
AcDbEntity
  8
0
 62
2
100
AcDbLine
 10
1151.9108649063646
 20
672.45059283304658
 30
0
 11
1106.1514792424077
 21
670.85263987432563
 31
0
  0
ARC
  5
190
330
1F
100
AcDbEntity
  8
0
 62
2
100
AcDbCircle
 10
1107.9662530736464
 20
618.88431686671959
 30
0
 40
52.0000000027066
100
AcDbArc
 50
92.00000000288216
 51
181.99999999691852
  0
LINE
  5
191
330
1F
100
AcDbEntity
  8
0
 62
2
100
AcDbLine
 10
1055.9979300658511
 20
617.06954304089
 30
0
 11
1059.9812190212886
 21
503.00307160823166
 31
0
  0
ARC
  5
192
330
1F
100
AcDbEntity
  8
0
 62
2
100
AcDbCircle
 10
1033.997057450988
 20
502.09568470946715
 30
0
 40
26.0000000672217
100
AcDbArc
 50
334.65563555815908
 51
1.9999999606479444
  0
LINE
  5
193
330
1F
100
AcDbEntity
  8
0
 62
2
100
AcDbLine
 10
1057.4945932121898
 20
490.96618262507081
 30
0
 11
1026.5699446663511
 21
425.67547798430553
 31
0
  0
ARC
  5
194
330
1F
100
AcDbEntity
  8
0
 62
2
100
AcDbCircle
 10
1073.5650145230923
 20
403.41646665847662
 30
0
 40
52.0000016927244
100
AcDbArc
 50
154.65562764563302
 51
181.99999216903845
  0
LINE
  5
195
330
1F
100
AcDbEntity
  8
0
 62
2
100
AcDbLine
 10
1129.7257354257747
 20
354.83160250843451
 30
0
 11
1121.7003896320703
 21
584.647437339934
 31
0
  0
LINE
  5
196
330
1F
100
AcDbEntity
  8
0
 62
2
100
AcDbLine
 10
1121.7003896320703
 20
584.647437339934
 30
0
 11
1124.59386362302
 21
587.75030831109882
 31
0
  0
LINE
  5
197
330
1F
100
AcDbEntity
  8
0
 62
2
100
AcDbLine
 10
1124.59386362302
 20
587.75030831109882
 30
0
 11
1123.0931852648125
 21
630.72411387291993
 31
0
  0
LINE
  5
198
330
1F
100
AcDbEntity
  8
0
 62
2
100
AcDbLine
 10
1123.0931852648125
 20
630.72411387291993
 30
0
 11
1091.1126788002016
 21
629.60732997843991
 31
0
  0
LINE
  5
199
330
1F
100
AcDbEntity
  8
0
 62
2
100
AcDbLine
 10
1091.1126788002016
 20
629.60732997843991
 30
0
 11
1092.6133571584091
 21
586.6335244166188
 31
0
  0
LINE
  5
19A
330
1F
100
AcDbEntity
  8
0
 62
2
100
AcDbLine
 10
1092.6133571584091
 20
586.6335244166188
 30
0
 11
1095.7162281295739
 21
583.740050425669
 31
0
  0
LINE
  5
19B
330
1F
100
AcDbEntity
  8
0
 62
2
100
AcDbLine
 10
1095.7162281295739
 20
583.740050425669
 30
0
 11
1103.7415704623847
 21
353.92421547331242
 31
0
  0
ARC
  5
19C
330
1F
100
AcDbEntity
  8
0
 62
2
100
AcDbCircle
 10
1077.7574089861746
 20
353.01682855398661
 30
0
 40
25.9999999739064
100
AcDbArc
 50
334.65563549479765
 51
2.000000013167174
  0
LINE
  5
19D
330
1F
100
AcDbEntity
  8
0
 62
2
100
AcDbLine
 10
1101.2549446507346
 20
341.8873264835496
 30
0
 11
1070.3302961057136
 21
276.59662184384524
 31
0
  0
ARC
  5
19E
330
1F
100
AcDbEntity
  8
0
 62
2
100
AcDbCircle
 10
1117.3253674853515
 20
254.33761768812661
 30
0
 40
51.9999999998227
100
AcDbArc
 50
154.6556355038424
 51
182.00000000003811
  0
LINE
  5
19F
330
1F
100
AcDbEntity
  8
0
 62
2
100
AcDbLine
 10
1065.3570444805368
 20
252.52284385956816
 30
0
 11
1069.3403334361735
 21
138.45637242691666
 31
0
  0
ARC
  5
1A0
330
1F
100
AcDbEntity
  8
0
 62
2
100
AcDbCircle
 10
1043.35617193243
 20
137.54898551381379
 30
0
 40
26.0000000012057
100
AcDbArc
 50
272.00000000265686
 51
1.9999999973446292
  0
LINE
  5
1A1
330
1F
100
AcDbEntity
  8
0
 62
2
100
AcDbLine
 10
1044.263558847942
 20
111.56482401015516
 30
0
 11
998.50417318398809
 21
109.96687105135429
 31
0
  0
LINE
  5
1A2
330
1F
100
AcDbEntity
  8
0
 62
2
100
AcDbLine
 10
998.50417318398809
 20
109.96687105135429
 30
0
 11
995.40130221282311
 21
112.86034504230805
 31
0
  0
LINE
  5
1A3
330
1F
100
AcDbEntity
  8
0
 62
2
100
AcDbLine
 10
995.40130221282311
 20
112.86034504230805
 30
0
 11
952.42749665100018
 21
111.35966668415345
 31
0
  0
LINE
  5
1A4
330
1F
100
AcDbEntity
  8
0
 62
2
100
AcDbLine
 10
952.42749665100018
 20
111.35966668415345
 30
0
 11
953.54428054548021
 21
79.379160219542328
 31
0
  0
LINE
  5
1A5
330
1F
100
AcDbEntity
  8
0
 62
2
100
AcDbLine
 10
953.54428054548021
 20
79.379160219542328
 30
0
 11
996.51808610730313
 21
80.879838577696958
 31
0
  0
LINE
  5
1A6
330
1F
100
AcDbEntity
  8
0
 62
2
100
AcDbLine
 10
996.51808610730313
 20
80.879838577696958
 30
0
 11
999.41156009825306
 21
83.982709548857784
 31
0
  0
LINE
  5
1A7
330
1F
100
AcDbEntity
  8
0
 62
2
100
AcDbLine
 10
999.41156009825306
 20
83.982709548857784
 30
0
 11
1045.1709457622071
 21
85.5806625076586
 31
0
  0
ARC
  5
1A8
330
1F
100
AcDbEntity
  8
0
 62
2
100
AcDbCircle
 10
1043.3561719308777
 20
137.54898551526151
 30
0
 40
52.0000000027066
100
AcDbArc
 50
272.00000000298218
 51
1.9999999970184132
  0
LINE
  5
1A9
330
1F
100
AcDbEntity
  8
0
 62
2
100
AcDbLine
 10
1095.32449493867
 20
139.36375934118166
 30
0
 11
1091.3412059830334
 21
253.43023077383316
 31
0
  0
ARC
  5
1AA
330
1F
100
AcDbEntity
  8
0
 62
2
100
AcDbCircle
 10
1117.3253675533324
 20
254.33761767264303
 30
0
 40
26.0000000672217
100
AcDbArc
 50
154.65563555825915
 51
181.99999996074797
  0
LINE
  5
1AB
330
1F
100
AcDbEntity
  8
0
 62
2
100
AcDbLine
 10
1093.8278317921111
 20
265.46711975699839
 30
0
 11
1124.7524803378358
 21
330.75782439781761
 31
0
  0
ARC
  5
1AC
330
1F
100
AcDbEntity
  8
0
 62
2
100
AcDbCircle
 10
1077.757410481056
 20
353.0168357235645
 30
0
 40
52.0000016927244
100
AcDbArc
 50
334.65562764573292
 51
1.9999921691385096
  0
LINE
  5
1AD
330
1F
100
AcDbEntity
  8
0
 62
2
100
AcDbLine
 10
1166.2149770995179
 20
314.79916524994513
 30
0
 11
1162.2016929600525
 21
544.72005961325328
 31
0
  0
LINE
  5
1AE
330
1F
100
AcDbEntity
  8
0
 62
2
100
AcDbLine
 10
1162.2016929600525
 20
544.72005961325328
 30
0
 11
1165.1488788262097
 21
547.77195991803433
 31
0
  0
LINE
  5
1AF
330
1F
100
AcDbEntity
  8
0
 62
2
100
AcDbLine
 10
1165.1488788262097
 20
547.77195991803433
 30
0
 11
1164.3984253494066
 21
590.765410809759
 31
0
  0
LINE
  5
1B0
330
1F
100
AcDbEntity
  8
0
 62
2
100
AcDbLine
 10
1164.3984253494066
 20
590.765410809759
 30
0
 11
1132.4032991044021
 21
590.20693380376611
 31
0
  0
LINE
  5
1B1
330
1F
100
AcDbEntity
  8
0
 62
2
100
AcDbLine
 10
1132.4032991044021
 20
590.20693380376611
 30
0
 11
1133.1537525812053
 21
547.21348291204117
 31
0
  0
LINE
  5
1B2
330
1F
100
AcDbEntity
  8
0
 62
2
100
AcDbLine
 10
1133.1537525812053
 20
547.21348291204117
 30
0
 11
1136.2056528859864
 21
544.2662970458839
 31
0
  0
LINE
  5
1B3
330
1F
100
AcDbEntity
  8
0
 62
2
100
AcDbLine
 10
1136.2056528859864
 20
544.2662970458839
 30
0
 11
1140.2189335629762
 21
314.345402622138
 31
0
  0
ARC
  5
1B4
330
1F
100
AcDbEntity
  8
0
 62
2
100
AcDbCircle
 10
1114.222893515104
 20
313.89164004924987
 30
0
 40
25.9999999739064
100
AcDbArc
 50
333.65563549479748
 51
1.0000000131671758
  0
LINE
  5
1B5
330
1F
100
AcDbEntity
  8
0
 62
2
100
AcDbLine
 10
1137.5226137975915
 20
302.35374451319268
 30
0
 11
1105.4631953123821
 21
237.61269349938541
 31
0
  0
ARC
  5
1B6
330
1F
100
AcDbEntity
  8
0
 62
2
100
AcDbCircle
 10
1152.0626359276084
 20
214.53690241154703
 30
0
 40
51.9999999998227
100
AcDbArc
 50
153.6556355038424
 51
181.00000000003814
  0
LINE
  5
1B7
330
1F
100
AcDbEntity
  8
0
 62
2
100
AcDbLine
 10
1100.0705557796539
 20
213.62937727677675
 30
0
 11
1102.0625036407798
 21
99.510760742406916
 31
0
  0
ARC
  5
1B8
330
1F
100
AcDbEntity
  8
0
 62
2
100
AcDbCircle
 10
1076.0664635654871
 20
99.056998176221285
 30
0
 40
26.0000000012057
100
AcDbArc
 50
271.00000000265703
 51
0.99999999734463463
  0
LINE
  5
1B9
330
1F
100
AcDbEntity
  8
0
 62
2
100
AcDbLine
 10
1076.520226134083
 20
73.060958100971376
 30
0
 11
1030.7399217217014
 21
72.261859915073714
 31
0
  0
LINE
  5
1BA
330
1F
100
AcDbEntity
  8
0
 62
2
100
AcDbLine
 10
1030.7399217217014
 20
72.261859915073714
 30
0
 11
1027.6880214169203
 21
75.209045781234991
 31
0
  0
LINE
  5
1BB
330
1F
100
AcDbEntity
  8
0
 62
2
100
AcDbLine
 10
1027.6880214169203
 20
75.209045781234991
 30
0
 11
984.69457052519465
 21
74.458592304484782
 31
0
  0
LINE
  5
1BC
330
1F
100
AcDbEntity
  8
0
 62
2
100
AcDbLine
 10
984.69457052519465
 20
74.458592304484782
 30
0
 11
985.25304753118769
 21
42.463466059480211
 31
0
  0
LINE
  5
1BD
330
1F
100
AcDbEntity
  8
0
 62
2
100
AcDbLine
 10
985.25304753118769
 20
42.463466059480211
 30
0
 11
1028.2464984229134
 21
43.213919536230449
 31
0
  0
LINE
  5
1BE
330
1F
100
AcDbEntity
  8
0
 62
2
100
AcDbLine
 10
1028.2464984229134
 20
43.213919536230449
 30
0
 11
1031.1936842890709
 21
46.265819841007513
 31
0
  0
LINE
  5
1BF
330
1F
100
AcDbEntity
  8
0
 62
2
100
AcDbLine
 10
1031.1936842890709
 20
46.265819841007513
 30
0
 11
1076.9739887014523
 21
47.064918026905112
 31
0
  0
ARC
  5
1C0
330
1F
100
AcDbEntity
  8
0
 62
2
100
AcDbCircle
 10
1076.06646356396
 20
99.05699817769586
 30
0
 40
52.0000000027066
100
AcDbArc
 50
271.00000000298235
 51
0.99999999701846443
  0
LINE
  5
1C1
330
1F
100
AcDbEntity
  8
0
 62
2
100
AcDbLine
 10
1128.0585437148459
 20
99.9645233097763
 30
0
 11
1126.0665958537202
 21
214.0831398441461
 31
0
  0
ARC
  5
1C2
330
1F
100
AcDbEntity
  8
0
 62
2
100
AcDbCircle
 10
1152.0626359953087
 20
214.53690239487941
 30
0
 40
26.0000000672217
100
AcDbArc
 50
153.65563555825906
 51
180.99999996074806
  0
LINE
  5
1C3
330
1F
100
AcDbEntity
  8
0
 62
2
100
AcDbLine
 10
1128.7629156164176
 20
226.07479794653977
 30
0
 11
1160.82233410235
 21
290.81584896144949
 31
0
  0
ARC
  5
1C4
330
1F
100
AcDbEntity
  8
0
 62
2
100
AcDbCircle
 10
1114.2228951348841
 20
313.89164719164654
 30
0
 40
52.0000016927244
100
AcDbArc
 50
333.655627645733
 51
0.99999216913848876
  0
LINE
  5
1C5
330
1F
100
AcDbEntity
  8
0
 62
2
100
AcDbLine
 10
979.070900904627
 20
274.1360001
 30
0
 11
979.07090090502834
 21
504.0919178634
 31
0
  0
LINE
  5
1C6
330
1F
100
AcDbEntity
  8
0
 62
2
100
AcDbLine
 10
979.07090090502834
 20
504.0919178634
 30
0
 11
982.07090090503357
 21
507.09191786339477
 31
0
  0
LINE
  5
1C7
330
1F
100
AcDbEntity
  8
0
 62
2
100
AcDbLine
 10
982.07090090503357
 20
507.09191786339477
 30
0
 11
982.0709009051086
 21
550.09191786339477
 31
0
  0
LINE
  5
1C8
330
1F
100
AcDbEntity
  8
0
 62
2
100
AcDbLine
 10
982.0709009051086
 20
550.09191786339477
 30
0
 11
950.0709009051086
 21
550.09191786345059
 31
0
  0
LINE
  5
1C9
330
1F
100
AcDbEntity
  8
0
 62
2
100
AcDbLine
 10
950.0709009051086
 20
550.09191786345059
 30
0
 11
950.07090090503357
 21
507.09191786345059
 31
0
  0
LINE
  5
1CA
330
1F
100
AcDbEntity
  8
0
 62
2
100
AcDbLine
 10
950.07090090503357
 20
507.09191786345059
 30
0
 11
953.07090090502834
 21
504.09191786344536
 31
0
  0
LINE
  5
1CB
330
1F
100
AcDbEntity
  8
0
 62
2
100
AcDbLine
 10
953.07090090502834
 20
504.09191786344536
 30
0
 11
953.07089744162408
 21
274.13600010004535
 31
0
  0
ARC
  5
1CC
330
1F
100
AcDbEntity
  8
0
 62
2
100
AcDbCircle
 10
927.07089746771771
 20
274.13600009411562
 30
0
 40
25.9999999739064
100
AcDbArc
 50
332.65563549469761
 51
1.3067260968928902E-08
  0
LINE
  5
1CD
330
1F
100
AcDbEntity
  8
0
 62
2
100
AcDbLine
 10
950.16570504760443
 20
262.19322564714832
 30
0
 11
916.98128223153185
 21
198.02154901059558
 31
0
  0
ARC
  5
1CE
330
1F
100
AcDbEntity
  8
0
 62
2
100
AcDbCircle
 10
963.17089744127441
 20
174.13600010006238
 30
0
 40
51.9999999998227
100
AcDbArc
 50
152.65563550374236
 51
179.99999999993818
  0
LINE
  5
1CF
330
1F
100
AcDbEntity
  8
0
 62
2
100
AcDbLine
 10
911.17089744145164
 20
174.13600010011848
 30
0
 11
911.17089744125258
 21
60.000000100118534
 31
0
  0
ARC
  5
1D0
330
1F
100
AcDbEntity
  8
0
 62
2
100
AcDbCircle
 10
885.17089744004693
 20
60.000000101368862
 30
0
 40
26.0000000012057
100
AcDbArc
 50
270.00000000255693
 51
359.99999999724469
  0
LINE
  5
1D1
330
1F
100
AcDbEntity
  8
0
 62
2
100
AcDbLine
 10
885.17089744120722
 20
34.000000100163895
 30
0
 11
839.383619404606
 21
34.00000010029779
 31
0
  0
LINE
  5
1D2
330
1F
100
AcDbEntity
  8
0
 62
2
100
AcDbLine
 10
839.383619404606
 20
34.00000010029779
 30
0
 11
836.38361940461118
 21
37.000000100307
 31
0
  0
LINE
  5
1D3
330
1F
100
AcDbEntity
  8
0
 62
2
100
AcDbLine
 10
836.38361940461118
 20
37.000000100307
 30
0
 11
793.38361940461118
 21
37.000000100435017
 31
0
  0
LINE
  5
1D4
330
1F
100
AcDbEntity
  8
0
 62
2
100
AcDbLine
 10
793.38361940461118
 20
37.000000100435017
 30
0
 11
793.38361940455547
 21
5.0000001004350141
 31
0
  0
LINE
  5
1D5
330
1F
100
AcDbEntity
  8
0
 62
2
100
AcDbLine
 10
793.38361940455547
 20
5.0000001004350141
 30
0
 11
836.38361940455547
 21
5.000000100307
 31
0
  0
LINE
  5
1D6
330
1F
100
AcDbEntity
  8
0
 62
2
100
AcDbLine
 10
836.38361940455547
 20
5.000000100307
 30
0
 11
839.3836194045607
 21
8.0000001002977914
 31
0
  0
LINE
  5
1D7
330
1F
100
AcDbEntity
  8
0
 62
2
100
AcDbLine
 10
839.3836194045607
 20
8.0000001002977914
 30
0
 11
885.17089744116174
 21
8.0000001001637511
 31
0
  0
ARC
  5
1D8
330
1F
100
AcDbEntity
  8
0
 62
2
100
AcDbCircle
 10
885.170897438546
 20
60.000000102869869
 30
0
 40
52.0000000027066
100
AcDbArc
 50
270.00000000288208
 51
359.9999999969184
  0
LINE
  5
1D9
330
1F
100
AcDbEntity
  8
0
 62
2
100
AcDbLine
 10
937.17089744125258
 20
60.000000100073137
 30
0
 11
937.17089744145164
 21
174.13600010007312
 31
0
  0
ARC
  5
1DA
330
1F
100
AcDbEntity
  8
0
 62
2
100
AcDbCircle
 10
963.17089750867353
 20
174.13600008221576
 30
0
 40
26.0000000672217
100
AcDbArc
 50
152.65563555815913
 51
179.99999996064804
  0
LINE
  5
1DB
330
1F
100
AcDbEntity
  8
0
 62
2
100
AcDbLine
 10
940.07608983267
 20
186.07877454646635
 30
0
 11
973.260512649485
 21
250.25045118410878
 31
0
  0
ARC
  5
1DC
330
1F
100
AcDbEntity
  8
0
 62
2
100
AcDbCircle
 10
927.07089921190311
 20
274.13600720715539
 30
0
 40
52.0000016927244
100
AcDbArc
 50
332.65562764563305
 51
359.99999216903853
  0
LINE
  5
1DD
330
1F
100
AcDbEntity
  8
0
 62
2
100
AcDbLine
 10
757.684583680617
 20
436.69890872210027
 30
0
 11
761.69786781968116
 21
206.77801435878516
 31
0
  0
LINE
  5
1DE
330
1F
100
AcDbEntity
  8
0
 62
2
100
AcDbLine
 10
761.69786781968116
 20
206.77801435878516
 30
0
 11
758.75068195351855
 21
203.72611405400926
 31
0
  0
LINE
  5
1DF
330
1F
100
AcDbEntity
  8
0
 62
2
100
AcDbLine
 10
758.75068195351855
 20
203.72611405400926
 30
0
 11
759.50113543024668
 21
160.73266316228316
 31
0
  0
LINE
  5
1E0
330
1F
100
AcDbEntity
  8
0
 62
2
100
AcDbLine
 10
759.50113543024668
 20
160.73266316228316
 30
0
 11
791.49626167525207
 21
161.29114016822038
 31
0
  0
LINE
  5
1E1
330
1F
100
AcDbEntity
  8
0
 62
2
100
AcDbLine
 10
791.49626167525207
 20
161.29114016822038
 30
0
 11
790.745808198524
 21
204.28459105994651
 31
0
  0
LINE
  5
1E2
330
1F
100
AcDbEntity
  8
0
 62
2
100
AcDbLine
 10
790.745808198524
 20
204.28459105994651
 30
0
 11
787.69390789374813
 21
207.23177692610915
 31
0
  0
LINE
  5
1E3
330
1F
100
AcDbEntity
  8
0
 62
2
100
AcDbLine
 10
787.69390789374813
 20
207.23177692610915
 30
0
 11
783.68062721715955
 21
437.15267134986203
 31
0
  0
ARC
  5
1E4
330
1F
100
AcDbEntity
  8
0
 62
2
100
AcDbCircle
 10
809.67666726503262
 20
437.60643392270481
 30
0
 40
25.9999999739064
100
AcDbArc
 50
153.65563549469769
 51
181.00000001306719
  0
LINE
  5
1E5
330
1F
100
AcDbEntity
  8
0
 62
2
100
AcDbLine
 10
786.37694698256519
 20
449.14432945880264
 30
0
 11
818.43636546788753
 21
513.885380472554
 31
0
  0
ARC
  5
1E6
330
1F
100
AcDbEntity
  8
0
 62
2
100
AcDbCircle
 10
771.8369248527016
 20
536.96117156047364
 30
0
 40
51.9999999998227
100
AcDbArc
 50
333.65563550374236
 51
0.99999999993815913
  0
LINE
  5
1E7
330
1F
100
AcDbEntity
  8
0
 62
2
100
AcDbLine
 10
823.82900500065762
 20
537.86869669515318
 30
0
 11
821.83705713973109
 21
651.98731322952653
 31
0
  0
ARC
  5
1E8
330
1F
100
AcDbEntity
  8
0
 62
2
100
AcDbCircle
 10
847.83309721502451
 20
652.44107579566673
 30
0
 40
26.0000000012057
100
AcDbArc
 50
91.000000002556817
 51
180.99999999724452
  0
LINE
  5
1E9
330
1F
100
AcDbEntity
  8
0
 62
2
100
AcDbLine
 10
847.379334646474
 20
678.43711587091752
 30
0
 11
893.1596390588569
 21
679.23621405673521
 31
0
  0
LINE
  5
1EA
330
1F
100
AcDbEntity
  8
0
 62
2
100
AcDbLine
 10
893.1596390588569
 20
679.23621405673521
 30
0
 11
896.21153936363282
 21
676.28902819056862
 31
0
  0
LINE
  5
1EB
330
1F
100
AcDbEntity
  8
0
 62
2
100
AcDbLine
 10
896.21153936363282
 20
676.28902819056862
 30
0
 11
939.20499025535992
 21
677.03948166724376
 31
0
  0
LINE
  5
1EC
330
1F
100
AcDbEntity
  8
0
 62
2
100
AcDbLine
 10
939.20499025535992
 20
677.03948166724376
 30
0
 11
938.6465132494227
 21
709.03460791224938
 31
0
  0
LINE
  5
1ED
330
1F
100
AcDbEntity
  8
0
 62
2
100
AcDbLine
 10
938.6465132494227
 20
709.03460791224938
 30
0
 11
895.6530623576956
 21
708.28415443557412
 31
0
  0
LINE
  5
1EE
330
1F
100
AcDbEntity
  8
0
 62
2
100
AcDbLine
 10
895.6530623576956
 20
708.28415443557412
 30
0
 11
892.70587649153288
 21
705.23225413080218
 31
0
  0
LINE
  5
1EF
330
1F
100
AcDbEntity
  8
0
 62
2
100
AcDbLine
 10
892.70587649153288
 20
705.23225413080218
 30
0
 11
846.92557207915
 21
704.43315594498461
 31
0
  0
ARC
  5
1F0
330
1F
100
AcDbEntity
  8
0
 62
2
100
AcDbCircle
 10
847.83309721655144
 20
652.44107579419222
 30
0
 40
52.0000000027066
100
AcDbArc
 50
91.00000000288226
 51
180.99999999691846
  0
LINE
  5
1F1
330
1F
100
AcDbEntity
  8
0
 62
2
100
AcDbLine
 10
795.84101706566412
 20
651.53355066220252
 30
0
 11
797.83296492659065
 21
537.41493412782916
 31
0
  0
ARC
  5
1F2
330
1F
100
AcDbEntity
  8
0
 62
2
100
AcDbCircle
 10
771.83692478500132
 20
536.96117157714127
 30
0
 40
26.0000000672217
100
AcDbArc
 50
333.65563555815913
 51
0.99999996064796226
  0
LINE
  5
1F3
330
1F
100
AcDbEntity
  8
0
 62
2
100
AcDbLine
 10
795.13664516387234
 20
525.42327602544026
 30
0
 11
763.077226677827
 21
460.68222501058654
 31
0
  0
ARC
  5
1F4
330
1F
100
AcDbEntity
  8
0
 62
2
100
AcDbCircle
 10
809.67666564525246
 20
437.60642678030814
 30
0
 40
52.0000016927244
100
AcDbArc
 50
153.65562764563293
 51
180.99999216903851
  0
LINE
  5
1F5
330
1F
100
AcDbEntity
  8
0
 62
2
100
AcDbLine
 10
794.17382535436036
 20
396.66647146361083
 30
0
 11
802.19917114766349
 21
166.85063663209735
 31
0
  0
LINE
  5
1F6
330
1F
100
AcDbEntity
  8
0
 62
2
100
AcDbLine
 10
802.19917114766349
 20
166.85063663209735
 30
0
 11
799.30569715670845
 21
163.74776566093763
 31
0
  0
LINE
  5
1F7
330
1F
100
AcDbEntity
  8
0
 62
2
100
AcDbLine
 10
799.30569715670845
 20
163.74776566093763
 30
0
 11
800.806375514841
 21
120.77396009911385
 31
0
  0
LINE
  5
1F8
330
1F
100
AcDbEntity
  8
0
 62
2
100
AcDbLine
 10
800.806375514841
 20
120.77396009911385
 30
0
 11
832.78688197945394
 21
121.89074399353811
 31
0
  0
LINE
  5
1F9
330
1F
100
AcDbEntity
  8
0
 62
2
100
AcDbLine
 10
832.78688197945394
 20
121.89074399353811
 30
0
 11
831.28620362132142
 21
164.86454955536183
 31
0
  0
LINE
  5
1FA
330
1F
100
AcDbEntity
  8
0
 62
2
100
AcDbLine
 10
831.28620362132142
 20
164.86454955536183
 30
0
 11
828.18333265016167
 21
167.75802354631702
 31
0
  0
LINE
  5
1FB
330
1F
100
AcDbEntity
  8
0
 62
2
100
AcDbLine
 10
828.18333265016167
 20
167.75802354631702
 30
0
 11
820.15799031775168
 21
397.57385849868757
 31
0
  0
ARC
  5
1FC
330
1F
100
AcDbEntity
  8
0
 62
2
100
AcDbCircle
 10
846.14215179396354
 20
398.48124541796807
 30
0
 40
25.9999999739064
100
AcDbArc
 50
154.65563549469769
 51
182.00000001306725
  0
LINE
  5
1FD
330
1F
100
AcDbEntity
  8
0
 62
2
100
AcDbLine
 10
822.644616129423
 20
409.61074748844607
 30
0
 11
853.569264674558
 21
474.90145212809648
 31
0
  0
ARC
  5
1FE
330
1F
100
AcDbEntity
  8
0
 62
2
100
AcDbCircle
 10
806.574193294959
 20
497.16045628389713
 30
0
 40
51.9999999998227
100
AcDbArc
 50
334.65563550374236
 51
1.9999999999381501
  0
LINE
  5
1FF
330
1F
100
AcDbEntity
  8
0
 62
2
100
AcDbLine
 10
858.54251629977671
 20
498.9752301123649
 30
0
 11
854.55922734433909
 21
613.04170154502322
 31
0
  0
ARC
  5
200
330
1F
100
AcDbEntity
  8
0
 62
2
100
AcDbCircle
 10
880.54338884808419
 20
613.94908845808084
 30
0
 40
26.0000000012057
100
AcDbArc
 50
92.000000002556888
 51
181.99999999724486
  0
LINE
  5
201
330
1F
100
AcDbEntity
  8
0
 62
2
100
AcDbLine
 10
879.63600193261755
 20
639.933249961741
 30
0
 11
925.39538759657432
 21
641.53120292046208
 31
0
  0
LINE
  5
202
330
1F
100
AcDbEntity
  8
0
 62
2
100
AcDbLine
 10
925.39538759657432
 20
641.53120292046208
 30
0
 11
928.49825856773418
 21
638.63772892950283
 31
0
  0
LINE
  5
203
330
1F
100
AcDbEntity
  8
0
 62
2
100
AcDbLine
 10
928.49825856773418
 20
638.63772892950283
 30
0
 11
971.47206412955973
 21
640.13840728758248
 31
0
  0
LINE
  5
204
330
1F
100
AcDbEntity
  8
0
 62
2
100
AcDbLine
 10
971.47206412955973
 20
640.13840728758248
 30
0
 11
970.35528023513552
 21
672.11891375219557
 31
0
  0
LINE
  5
205
330
1F
100
AcDbEntity
  8
0
 62
2
100
AcDbLine
 10
970.35528023513552
 20
672.11891375219557
 30
0
 11
927.38147467331
 21
670.6182353941158
 31
0
  0
LINE
  5
206
330
1F
100
AcDbEntity
  8
0
 62
2
100
AcDbLine
 10
927.38147467331
 20
670.6182353941158
 30
0
 11
924.4880006823546
 21
667.51536442296015
 31
0
  0
LINE
  5
207
330
1F
100
AcDbEntity
  8
0
 62
2
100
AcDbLine
 10
924.4880006823546
 20
667.51536442296015
 30
0
 11
878.72861501839782
 21
665.91741146423919
 31
0
  0
ARC
  5
208
330
1F
100
AcDbEntity
  8
0
 62
2
100
AcDbCircle
 10
880.54338884963659
 20
613.949088456633
 30
0
 40
52.0000000027066
100
AcDbArc
 50
92.000000002882274
 51
181.99999999691838
  0
LINE
  5
209
330
1F
100
AcDbEntity
  8
0
 62
2
100
AcDbLine
 10
828.575065841841
 20
612.1343146308036
 30
0
 11
832.55835479727853
 21
498.06784319814517
 31
0
  0
ARC
  5
20A
330
1F
100
AcDbEntity
  8
0
 62
2
100
AcDbCircle
 10
806.574193226978
 20
497.16045629938066
 30
0
 40
26.0000000672217
100
AcDbArc
 50
334.65563555815919
 51
1.9999999606479444
  0
LINE
  5
20B
330
1F
100
AcDbEntity
  8
0
 62
2
100
AcDbLine
 10
830.07172898818
 20
486.03095421498426
 30
0
 11
799.14708044234123
 21
420.74024957421904
 31
0
  0
ARC
  5
20C
330
1F
100
AcDbEntity
  8
0
 62
2
100
AcDbCircle
 10
846.14215029908223
 20
398.48123824839013
 30
0
 40
52.0000016927244
100
AcDbArc
 50
154.65562764563296
 51
181.99999216903848
  0
LINE
  5
20D
330
1F
100
AcDbEntity
  8
0
 62
2
100
AcDbLine
 10
906.79663623088368
 20
354.83160250843451
 30
0
 11
898.77129043717946
 21
584.647437339934
 31
0
  0
LINE
  5
20E
330
1F
100
AcDbEntity
  8
0
 62
2
100
AcDbLine
 10
898.77129043717946
 20
584.647437339934
 30
0
 11
901.66476442812927
 21
587.75030831109882
 31
0
  0
LINE
  5
20F
330
1F
100
AcDbEntity
  8
0
 62
2
100
AcDbLine
 10
901.66476442812927
 20
587.75030831109882
 30
0
 11
900.16408606992172
 21
630.72411387291993
 31
0
  0
LINE
  5
210
330
1F
100
AcDbEntity
  8
0
 62
2
100
AcDbLine
 10
900.16408606992172
 20
630.72411387291993
 30
0
 11
868.18357960531057
 21
629.60732997843991
 31
0
  0
LINE
  5
211
330
1F
100
AcDbEntity
  8
0
 62
2
100
AcDbLine
 10
868.18357960531057
 20
629.60732997843991
 30
0
 11
869.68425796351812
 21
586.6335244166188
 31
0
  0
LINE
  5
212
330
1F
100
AcDbEntity
  8
0
 62
2
100
AcDbLine
 10
869.68425796351812
 20
586.6335244166188
 30
0
 11
872.787128934683
 21
583.740050425669
 31
0
  0
LINE
  5
213
330
1F
100
AcDbEntity
  8
0
 62
2
100
AcDbLine
 10
872.787128934683
 20
583.740050425669
 30
0
 11
880.812471267494
 21
353.92421547331242
 31
0
  0
ARC
  5
214
330
1F
100
AcDbEntity
  8
0
 62
2
100
AcDbCircle
 10
854.82830979128357
 20
353.01682855398661
 30
0
 40
25.9999999739064
100
AcDbArc
 50
334.65563549479765
 51
2.0000000131671567
  0
LINE
  5
215
330
1F
100
AcDbEntity
  8
0
 62
2
100
AcDbLine
 10
878.32584545584359
 20
341.8873264835496
 30
0
 11
847.40119691082259
 21
276.59662184384524
 31
0
  0
ARC
  5
216
330
1F
100
AcDbEntity
  8
0
 62
2
100
AcDbCircle
 10
894.39626829046051
 20
254.33761768812664
 30
0
 40
51.9999999998227
100
AcDbArc
 50
154.65563550384243
 51
182.00000000003814
  0
LINE
  5
217
330
1F
100
AcDbEntity
  8
0
 62
2
100
AcDbLine
 10
842.427945285646
 20
252.52284385956818
 30
0
 11
846.41123424128261
 21
138.45637242691669
 31
0
  0
ARC
  5
218
330
1F
100
AcDbEntity
  8
0
 62
2
100
AcDbCircle
 10
820.42707273753911
 20
137.54898551381382
 30
0
 40
26.0000000012057
100
AcDbArc
 50
272.00000000265715
 51
1.9999999973446292
  0
LINE
  5
219
330
1F
100
AcDbEntity
  8
0
 62
2
100
AcDbLine
 10
821.33445965305123
 20
111.56482401015518
 30
0
 11
775.57507398909706
 21
109.9668710513543
 31
0
  0
LINE
  5
21A
330
1F
100
AcDbEntity
  8
0
 62
2
100
AcDbLine
 10
775.57507398909706
 20
109.9668710513543
 30
0
 11
772.47220301793232
 21
112.86034504230807
 31
0
  0
LINE
  5
21B
330
1F
100
AcDbEntity
  8
0
 62
2
100
AcDbLine
 10
772.47220301793232
 20
112.86034504230807
 30
0
 11
729.49839745610916
 21
111.35966668415347
 31
0
  0
LINE
  5
21C
330
1F
100
AcDbEntity
  8
0
 62
2
100
AcDbLine
 10
729.49839745610916
 20
111.35966668415347
 30
0
 11
730.61518135058918
 21
79.379160219542342
 31
0
  0
LINE
  5
21D
330
1F
100
AcDbEntity
  8
0
 62
2
100
AcDbLine
 10
730.61518135058918
 20
79.379160219542342
 30
0
 11
773.58898691241234
 21
80.879838577696972
 31
0
  0
LINE
  5
21E
330
1F
100
AcDbEntity
  8
0
 62
2
100
AcDbLine
 10
773.58898691241234
 20
80.879838577696972
 30
0
 11
776.48246090336215
 21
83.9827095488578
 31
0
  0
LINE
  5
21F
330
1F
100
AcDbEntity
  8
0
 62
2
100
AcDbLine
 10
776.48246090336215
 20
83.9827095488578
 30
0
 11
822.2418465673162
 21
85.580662507658616
 31
0
  0
ARC
  5
220
330
1F
100
AcDbEntity
  8
0
 62
2
100
AcDbCircle
 10
820.42707273598671
 20
137.54898551526153
 30
0
 40
52.0000000027066
100
AcDbArc
 50
272.00000000298229
 51
1.9999999970184132
  0
LINE
  5
221
330
1F
100
AcDbEntity
  8
0
 62
2
100
AcDbLine
 10
872.39539574377909
 20
139.36375934118169
 30
0
 11
868.41210678814241
 21
253.43023077383319
 31
0
  0
ARC
  5
222
330
1F
100
AcDbEntity
  8
0
 62
2
100
AcDbCircle
 10
894.39626835844138
 20
254.33761767264306
 30
0
 40
26.0000000672217
100
AcDbArc
 50
154.65563555825909
 51
181.99999996074797
  0
LINE
  5
223
330
1F
100
AcDbEntity
  8
0
 62
2
100
AcDbLine
 10
870.89873259722015
 20
265.46711975699839
 30
0
 11
901.82338114294475
 21
330.75782439781761
 31
0
  0
ARC
  5
224
330
1F
100
AcDbEntity
  8
0
 62
2
100
AcDbCircle
 10
854.828311286165
 20
353.0168357235645
 30
0
 40
52.0000016927244
100
AcDbArc
 50
334.65562764573292
 51
1.9999921691385096
  0
LINE
  5
225
330
1F
100
AcDbEntity
  8
0
 62
2
100
AcDbLine
 10
943.285877904627
 20
314.79916524994513
 30
0
 11
939.27259376516167
 21
544.72005961325328
 31
0
  0
LINE
  5
226
330
1F
100
AcDbEntity
  8
0
 62
2
100
AcDbLine
 10
939.27259376516167
 20
544.72005961325328
 30
0
 11
942.21977963131894
 21
547.77195991803433
 31
0
  0
LINE
  5
227
330
1F
100
AcDbEntity
  8
0
 62
2
100
AcDbLine
 10
942.21977963131894
 20
547.77195991803433
 30
0
 11
941.46932615451578
 21
590.765410809759
 31
0
  0
LINE
  5
228
330
1F
100
AcDbEntity
  8
0
 62
2
100
AcDbLine
 10
941.46932615451578
 20
590.765410809759
 30
0
 11
909.4741999095113
 21
590.20693380376611
 31
0
  0
LINE
  5
229
330
1F
100
AcDbEntity
  8
0
 62
2
100
AcDbLine
 10
909.4741999095113
 20
590.20693380376611
 30
0
 11
910.22465338631446
 21
547.21348291204117
 31
0
  0
LINE
  5
22A
330
1F
100
AcDbEntity
  8
0
 62
2
100
AcDbLine
 10
910.22465338631446
 20
547.21348291204117
 30
0
 11
913.27655369109539
 21
544.2662970458839
 31
0
  0
LINE
  5
22B
330
1F
100
AcDbEntity
  8
0
 62
2
100
AcDbLine
 10
913.27655369109539
 20
544.2662970458839
 30
0
 11
917.28983436808539
 21
314.345402622138
 31
0
  0
ARC
  5
22C
330
1F
100
AcDbEntity
  8
0
 62
2
100
AcDbCircle
 10
891.293794320213
 20
313.89164004924987
 30
0
 40
25.9999999739064
100
AcDbArc
 50
333.65563549479776
 51
1.0000000131671669
  0
LINE
  5
22D
330
1F
100
AcDbEntity
  8
0
 62
2
100
AcDbLine
 10
914.59351460270068
 20
302.35374451319268
 30
0
 11
882.53409611749123
 21
237.61269349938544
 31
0
  0
ARC
  5
22E
330
1F
100
AcDbEntity
  8
0
 62
2
100
AcDbCircle
 10
929.1335367327174
 20
214.53690241154706
 30
0
 40
51.9999999998227
100
AcDbArc
 50
153.65563550384235
 51
181.00000000003814
  0
LINE
  5
22F
330
1F
100
AcDbEntity
  8
0
 62
2
100
AcDbLine
 10
877.14145658476309
 20
213.62937727677678
 30
0
 11
879.1334044458888
 21
99.51076074240693
 31
0
  0
ARC
  5
230
330
1F
100
AcDbEntity
  8
0
 62
2
100
AcDbCircle
 10
853.13736437059606
 20
99.0569981762213
 30
0
 40
26.0000000012057
100
AcDbArc
 50
271.00000000265703
 51
0.99999999734463463
  0
LINE
  5
231
330
1F
100
AcDbEntity
  8
0
 62
2
100
AcDbLine
 10
853.591126939192
 20
73.060958100971391
 30
0
 11
807.81082252681051
 21
72.261859915073728
 31
0
  0
LINE
  5
232
330
1F
100
AcDbEntity
  8
0
 62
2
100
AcDbLine
 10
807.81082252681051
 20
72.261859915073728
 30
0
 11
804.75892222202947
 21
75.209045781235
 31
0
  0
LINE
  5
233
330
1F
100
AcDbEntity
  8
0
 62
2
100
AcDbLine
 10
804.75892222202947
 20
75.209045781235
 30
0
 11
761.76547133030363
 21
74.4585923044848
 31
0
  0
LINE
  5
234
330
1F
100
AcDbEntity
  8
0
 62
2
100
AcDbLine
 10
761.76547133030363
 20
74.4585923044848
 30
0
 11
762.32394833629678
 21
42.463466059480226
 31
0
  0
LINE
  5
235
330
1F
100
AcDbEntity
  8
0
 62
2
100
AcDbLine
 10
762.32394833629678
 20
42.463466059480226
 30
0
 11
805.31739922802251
 21
43.213919536230456
 31
0
  0
LINE
  5
236
330
1F
100
AcDbEntity
  8
0
 62
2
100
AcDbLine
 10
805.31739922802251
 20
43.213919536230456
 30
0
 11
808.26458509417989
 21
46.26581984100752
 31
0
  0
LINE
  5
237
330
1F
100
AcDbEntity
  8
0
 62
2
100
AcDbLine
 10
808.26458509417989
 20
46.26581984100752
 30
0
 11
854.0448895065615
 21
47.064918026905126
 31
0
  0
ARC
  5
238
330
1F
100
AcDbEntity
  8
0
 62
2
100
AcDbCircle
 10
853.13736436906925
 20
99.056998177695874
 30
0
 40
52.0000000027066
100
AcDbArc
 50
271.00000000298235
 51
0.99999999701846654
  0
LINE
  5
239
330
1F
100
AcDbEntity
  8
0
 62
2
100
AcDbLine
 10
905.129444519955
 20
99.964523309776311
 30
0
 11
903.13749665882915
 21
214.08313984414613
 31
0
  0
ARC
  5
23A
330
1F
100
AcDbEntity
  8
0
 62
2
100
AcDbCircle
 10
929.1335368004178
 20
214.53690239487943
 30
0
 40
26.0000000672217
100
AcDbArc
 50
153.65563555825918
 51
180.99999996074806
  0
LINE
  5
23B
330
1F
100
AcDbEntity
  8
0
 62
2
100
AcDbLine
 10
905.83381642152654
 20
226.0747979465398
 30
0
 11
937.893234907459
 21
290.81584896144949
 31
0
  0
ARC
  5
23C
330
1F
100
AcDbEntity
  8
0
 62
2
100
AcDbCircle
 10
891.29379593999317
 20
313.89164719164654
 30
0
 40
52.0000016927244
100
AcDbArc
 50
333.655627645733
 51
0.99999216913848876
  0
LINE
  5
23D
330
1F
100
AcDbEntity
  8
0
 62
2
100
AcDbLine
 10
276.426130750188
 20
8.0000001000000562
 30
0
 11
506.38204851358807
 21
8.0000001000000278
 31
0
  0
LINE
  5
23E
330
1F
100
AcDbEntity
  8
0
 62
2
100
AcDbLine
 10
506.38204851358807
 20
8.0000001000000278
 30
0
 11
509.38204851358807
 21
5.0000001000000278
 31
0
  0
LINE
  5
23F
330
1F
100
AcDbEntity
  8
0
 62
2
100
AcDbLine
 10
509.38204851358807
 20
5.0000001000000278
 30
0
 11
552.38204851358807
 21
5.0000001000000225
 31
0
  0
LINE
  5
240
330
1F
100
AcDbEntity
  8
0
 62
2
100
AcDbLine
 10
552.38204851358807
 20
5.0000001000000225
 30
0
 11
552.38204851358807
 21
37.000000100000022
 31
0
  0
LINE
  5
241
330
1F
100
AcDbEntity
  8
0
 62
2
100
AcDbLine
 10
552.38204851358807
 20
37.000000100000022
 30
0
 11
509.38204851358807
 21
37.00000010000003
 31
0
  0
LINE
  5
242
330
1F
100
AcDbEntity
  8
0
 62
2
100
AcDbLine
 10
509.38204851358807
 20
37.00000010000003
 30
0
 11
506.38204851358807
 21
34.00000010000003
 31
0
  0
LINE
  5
243
330
1F
100
AcDbEntity
  8
0
 62
2
100
AcDbLine
 10
506.38204851358807
 20
34.00000010000003
 30
0
 11
276.426130750188
 21
34.00000356300297
 31
0
  0
ARC
  5
244
330
1F
100
AcDbEntity
  8
0
 62
2
100
AcDbCircle
 10
276.42613074421297
 20
60.000003536909368
 30
0
 40
25.9999999739064
100
AcDbArc
 50
242.65563549479751
 51
270.0000000131671
  0
LINE
  5
245
330
1F
100
AcDbEntity
  8
0
 62
2
100
AcDbLine
 10
264.48335629728592
 20
36.905195957001759
 30
0
 11
200.31167966067517
 21
70.089618772962467
 31
0
  0
ARC
  5
246
330
1F
100
AcDbEntity
  8
0
 62
2
100
AcDbCircle
 10
176.42613075022268
 20
23.900003563178178
 30
0
 40
51.9999999998227
100
AcDbArc
 50
62.655635503842483
 51
90.000000000038085
  0
LINE
  5
247
330
1F
100
AcDbEntity
  8
0
 62
2
100
AcDbLine
 10
176.42613075018812
 20
75.900003563000851
 30
0
 11
62.290130750188155
 21
75.90000356300088
 31
0
  0
ARC
  5
248
330
1F
100
AcDbEntity
  8
0
 62
2
100
AcDbCircle
 10
62.290130751393008
 20
101.90000356420659
 30
0
 40
26.0000000012057
100
AcDbArc
 50
180.00000000265698
 51
269.99999999734484
  0
LINE
  5
249
330
1F
100
AcDbEntity
  8
0
 62
2
100
AcDbLine
 10
36.290130750188155
 20
101.90000356300088
 30
0
 11
36.290130750242042
 21
147.6872815996021
 31
0
  0
LINE
  5
24A
330
1F
100
AcDbEntity
  8
0
 62
2
100
AcDbLine
 10
36.290130750242042
 20
147.6872815996021
 30
0
 11
39.290130750246135
 21
150.6872815996021
 31
0
  0
LINE
  5
24B
330
1F
100
AcDbEntity
  8
0
 62
2
100
AcDbLine
 10
39.290130750246135
 20
150.6872815996021
 30
0
 11
39.290130750299113
 21
193.6872815996021
 31
0
  0
LINE
  5
24C
330
1F
100
AcDbEntity
  8
0
 62
2
100
AcDbLine
 10
39.290130750299113
 20
193.6872815996021
 30
0
 11
7.2901307502991131
 21
193.6872815996021
 31
0
  0
LINE
  5
24D
330
1F
100
AcDbEntity
  8
0
 62
2
100
AcDbLine
 10
7.2901307502991131
 20
193.6872815996021
 30
0
 11
7.290130750246135
 21
150.6872815996021
 31
0
  0
LINE
  5
24E
330
1F
100
AcDbEntity
  8
0
 62
2
100
AcDbLine
 10
7.290130750246135
 20
150.6872815996021
 30
0
 11
10.290130750242042
 21
147.6872815996021
 31
0
  0
LINE
  5
24F
330
1F
100
AcDbEntity
  8
0
 62
2
100
AcDbLine
 10
10.290130750242042
 20
147.6872815996021
 30
0
 11
10.290130750187927
 21
101.90000356300088
 31
0
  0
ARC
  5
250
330
1F
100
AcDbEntity
  8
0
 62
2
100
AcDbCircle
 10
62.290130752894129
 20
101.90000356570748
 30
0
 40
52.0000000027066
100
AcDbArc
 50
180.00000000298223
 51
269.99999999701839
  0
LINE
  5
251
330
1F
100
AcDbEntity
  8
0
 62
2
100
AcDbLine
 10
62.290130750188155
 20
49.9000035630009
 30
0
 11
176.42613075018812
 21
49.900003563000887
 31
0
  0
ARC
  5
252
330
1F
100
AcDbEntity
  8
0
 62
2
100
AcDbCircle
 10
176.42613073237612
 20
23.900003495779078
 30
0
 40
26.0000000672217
100
AcDbArc
 50
62.65563555825932
 51
89.999999960747985
  0
LINE
  5
253
330
1F
100
AcDbEntity
  8
0
 62
2
100
AcDbLine
 10
188.3689051965863
 20
46.99481117180337
 30
0
 11
252.54058183428663
 21
13.810388355100466
 31
0
  0
ARC
  5
254
330
1F
100
AcDbEntity
  8
0
 62
2
100
AcDbCircle
 10
276.42613785725268
 20
60.000001792723971
 30
0
 40
52.0000016927244
100
AcDbArc
 50
242.65562764573295
 51
269.99999216913852
  0
LINE
  5
255
330
1F
100
AcDbEntity
  8
0
 62
2
100
AcDbLine
 10
452.86452741711184
 20
221.84492644748659
 30
0
 11
222.9436330537967
 21
217.83164230842235
 31
0
  0
LINE
  5
256
330
1F
100
AcDbEntity
  8
0
 62
2
100
AcDbLine
 10
222.9436330537967
 20
217.83164230842235
 30
0
 11
219.89173274902078
 21
220.778828174585
 31
0
  0
LINE
  5
257
330
1F
100
AcDbEntity
  8
0
 62
2
100
AcDbLine
 10
219.89173274902078
 20
220.778828174585
 30
0
 11
176.89828185729493
 21
220.0283746978568
 31
0
  0
LINE
  5
258
330
1F
100
AcDbEntity
  8
0
 62
2
100
AcDbLine
 10
176.89828185729493
 20
220.0283746978568
 30
0
 11
177.45675886323215
 21
188.03324845285132
 31
0
  0
LINE
  5
259
330
1F
100
AcDbEntity
  8
0
 62
2
100
AcDbLine
 10
177.45675886323215
 20
188.03324845285132
 30
0
 11
220.45020975495811
 21
188.78370192957951
 31
0
  0
LINE
  5
25A
330
1F
100
AcDbEntity
  8
0
 62
2
100
AcDbLine
 10
220.45020975495811
 20
188.78370192957951
 30
0
 11
223.39739562112072
 21
191.83560223435538
 31
0
  0
LINE
  5
25B
330
1F
100
AcDbEntity
  8
0
 62
2
100
AcDbLine
 10
223.39739562112072
 20
191.83560223435538
 30
0
 11
453.31829004487361
 21
195.84888291094416
 31
0
  0
ARC
  5
25C
330
1F
100
AcDbEntity
  8
0
 62
2
100
AcDbCircle
 10
453.77205261771644
 20
169.85284286307109
 30
0
 40
25.9999999739064
100
AcDbArc
 50
63.655635494697663
 51
91.000000013067321
  0
LINE
  5
25D
330
1F
100
AcDbEntity
  8
0
 62
2
100
AcDbLine
 10
465.30994815381428
 20
193.15256314553849
 30
0
 11
530.05099916756558
 21
161.0931446602161
 31
0
  0
ARC
  5
25E
330
1F
100
AcDbEntity
  8
0
 62
2
100
AcDbCircle
 10
553.12679025548528
 20
207.69258527540211
 30
0
 40
51.9999999998227
100
AcDbArc
 50
243.65563550374245
 51
270.99999999993815
  0
LINE
  5
25F
330
1F
100
AcDbEntity
  8
0
 62
2
100
AcDbLine
 10
554.03431539016481
 20
155.70050512744606
 30
0
 11
668.15293192453817
 21
157.69245298837274
 31
0
  0
ARC
  5
260
330
1F
100
AcDbEntity
  8
0
 62
2
100
AcDbCircle
 10
668.60669449067836
 20
131.69641291307923
 30
0
 40
26.0000000012057
100
AcDbArc
 50
1.0000000025570075
 51
90.999999997244515
  0
LINE
  5
261
330
1F
100
AcDbEntity
  8
0
 62
2
100
AcDbLine
 10
694.60273456592915
 20
132.15017548162979
 30
0
 11
695.40183275174684
 21
86.3698710692469
 31
0
  0
LINE
  5
262
330
1F
100
AcDbEntity
  8
0
 62
2
100
AcDbLine
 10
695.40183275174684
 20
86.3698710692469
 30
0
 11
692.45464688558025
 21
83.317970764470942
 31
0
  0
LINE
  5
263
330
1F
100
AcDbEntity
  8
0
 62
2
100
AcDbLine
 10
692.45464688558025
 20
83.317970764470942
 30
0
 11
693.20510036225551
 21
40.324519872743878
 31
0
  0
LINE
  5
264
330
1F
100
AcDbEntity
  8
0
 62
2
100
AcDbLine
 10
693.20510036225551
 20
40.324519872743878
 30
0
 11
725.20022660726113
 21
40.882996878681126
 31
0
  0
LINE
  5
265
330
1F
100
AcDbEntity
  8
0
 62
2
100
AcDbLine
 10
725.20022660726113
 20
40.882996878681126
 30
0
 11
724.44977313058587
 21
83.876447770408191
 31
0
  0
LINE
  5
266
330
1F
100
AcDbEntity
  8
0
 62
2
100
AcDbLine
 10
724.44977313058587
 20
83.876447770408191
 30
0
 11
721.39787282581392
 21
86.823633636570918
 31
0
  0
LINE
  5
267
330
1F
100
AcDbEntity
  8
0
 62
2
100
AcDbLine
 10
721.39787282581392
 20
86.823633636570918
 30
0
 11
720.59877463999624
 21
132.60393804895381
 31
0
  0
ARC
  5
268
330
1F
100
AcDbEntity
  8
0
 62
2
100
AcDbCircle
 10
668.60669448920385
 20
131.69641291155236
 30
0
 40
52.0000000027066
100
AcDbArc
 50
1.0000000028822835
 51
90.999999996918476
  0
LINE
  5
269
330
1F
100
AcDbEntity
  8
0
 62
2
100
AcDbLine
 10
667.69916935721415
 20
183.68849306243968
 30
0
 11
553.58055282284079
 21
181.696545201513
 31
0
  0
ARC
  5
26A
330
1F
100
AcDbEntity
  8
0
 62
2
100
AcDbCircle
 10
553.1267902721529
 20
207.69258534310239
 30
0
 40
26.0000000672217
100
AcDbArc
 50
243.65563555815919
 51
270.999999960648
  0
LINE
  5
26B
330
1F
100
AcDbEntity
  8
0
 62
2
100
AcDbLine
 10
541.58889472045189
 20
184.39286496423131
 30
0
 11
476.84784370559805
 21
216.45228345027675
 31
0
  0
ARC
  5
26C
330
1F
100
AcDbEntity
  8
0
 62
2
100
AcDbCircle
 10
453.77204547531971
 20
169.85284448285117
 30
0
 40
52.0000016927244
100
AcDbArc
 50
63.655627645633032
 51
90.9999921690385
  0
LINE
  5
26D
330
1F
100
AcDbEntity
  8
0
 62
2
100
AcDbLine
 10
412.83209015862246
 20
185.35568477374332
 30
0
 11
183.01625532710909
 21
177.33033898044
 31
0
  0
LINE
  5
26E
330
1F
100
AcDbEntity
  8
0
 62
2
100
AcDbLine
 10
183.01625532710909
 20
177.33033898044
 30
0
 11
179.91338435594935
 21
180.22381297139518
 31
0
  0
LINE
  5
26F
330
1F
100
AcDbEntity
  8
0
 62
2
100
AcDbLine
 10
179.91338435594935
 20
180.22381297139518
 30
0
 11
136.93957879412551
 21
178.72313461326263
 31
0
  0
LINE
  5
270
330
1F
100
AcDbEntity
  8
0
 62
2
100
AcDbLine
 10
136.93957879412551
 20
178.72313461326263
 30
0
 11
138.05636268854983
 21
146.7426281486496
 31
0
  0
LINE
  5
271
330
1F
100
AcDbEntity
  8
0
 62
2
100
AcDbLine
 10
138.05636268854983
 20
146.7426281486496
 30
0
 11
181.03016825037366
 21
148.24330650678218
 31
0
  0
LINE
  5
272
330
1F
100
AcDbEntity
  8
0
 62
2
100
AcDbLine
 10
181.03016825037366
 20
148.24330650678218
 30
0
 11
183.92364224132871
 21
151.34617747794192
 31
0
  0
LINE
  5
273
330
1F
100
AcDbEntity
  8
0
 62
2
100
AcDbLine
 10
183.92364224132871
 20
151.34617747794192
 30
0
 11
413.73947719369926
 21
159.37151981035191
 31
0
  0
ARC
  5
274
330
1F
100
AcDbEntity
  8
0
 62
2
100
AcDbCircle
 10
414.64686411297964
 20
133.38735833414006
 30
0
 40
25.9999999739064
100
AcDbArc
 50
64.655635494697464
 51
92.000000013067023
  0
LINE
  5
275
330
1F
100
AcDbEntity
  8
0
 62
2
100
AcDbLine
 10
425.77636618345775
 20
156.88489399868064
 30
0
 11
491.06707082310811
 21
125.96024545354574
 31
0
  0
ARC
  5
276
330
1F
100
AcDbEntity
  8
0
 62
2
100
AcDbCircle
 10
513.32607497890876
 20
172.95531683314479
 30
0
 40
51.9999999998227
100
AcDbArc
 50
244.65563550374236
 51
271.99999999993815
  0
LINE
  5
277
330
1F
100
AcDbEntity
  8
0
 62
2
100
AcDbLine
 10
515.14084880737653
 20
120.98699382832704
 30
0
 11
629.207320240035
 21
124.97028278376466
 31
0
  0
ARC
  5
278
330
1F
100
AcDbEntity
  8
0
 62
2
100
AcDbCircle
 10
630.11470715309247
 20
98.986121280019546
 30
0
 40
26.0000000012057
100
AcDbArc
 50
2.0000000025570386
 51
91.999999997244615
  0
LINE
  5
279
330
1F
100
AcDbEntity
  8
0
 62
2
100
AcDbLine
 10
656.09886865675264
 20
99.893508195486262
 30
0
 11
657.69682161547371
 21
54.134122531529449
 31
0
  0
LINE
  5
27A
330
1F
100
AcDbEntity
  8
0
 62
2
100
AcDbLine
 10
657.69682161547371
 20
54.134122531529449
 30
0
 11
654.80334762451457
 21
51.031251560369562
 31
0
  0
LINE
  5
27B
330
1F
100
AcDbEntity
  8
0
 62
2
100
AcDbLine
 10
654.80334762451457
 20
51.031251560369562
 30
0
 11
656.30402598259423
 21
8.0574459985439884
 31
0
  0
LINE
  5
27C
330
1F
100
AcDbEntity
  8
0
 62
2
100
AcDbLine
 10
656.30402598259423
 20
8.0574459985439884
 30
0
 11
688.2845324472072
 21
9.1742298929682171
 31
0
  0
LINE
  5
27D
330
1F
100
AcDbEntity
  8
0
 62
2
100
AcDbLine
 10
688.2845324472072
 20
9.1742298929682171
 30
0
 11
686.78385408912754
 21
52.148035454793792
 31
0
  0
LINE
  5
27E
330
1F
100
AcDbEntity
  8
0
 62
2
100
AcDbLine
 10
686.78385408912754
 20
52.148035454793792
 30
0
 11
683.68098311797178
 21
55.041509445749121
 31
0
  0
LINE
  5
27F
330
1F
100
AcDbEntity
  8
0
 62
2
100
AcDbLine
 10
683.68098311797178
 20
55.041509445749121
 30
0
 11
682.08303015925082
 21
100.80089510970595
 31
0
  0
ARC
  5
280
330
1F
100
AcDbEntity
  8
0
 62
2
100
AcDbCircle
 10
630.11470715164478
 20
98.986121278467181
 30
0
 40
52.0000000027066
100
AcDbArc
 50
2.0000000028822775
 51
91.999999996918518
  0
LINE
  5
281
330
1F
100
AcDbEntity
  8
0
 62
2
100
AcDbLine
 10
628.29993332581523
 20
150.95444428626271
 30
0
 11
514.2334618931568
 21
146.9711553308251
 31
0
  0
ARC
  5
282
330
1F
100
AcDbEntity
  8
0
 62
2
100
AcDbCircle
 10
513.32607499439234
 20
172.95531690112568
 30
0
 40
26.0000000672217
100
AcDbArc
 50
244.65563555815891
 51
271.99999996064781
  0
LINE
  5
283
330
1F
100
AcDbEntity
  8
0
 62
2
100
AcDbLine
 10
502.19657290999589
 20
149.45778113992381
 30
0
 11
436.90586826923061
 21
180.38242968576242
 31
0
  0
ARC
  5
284
330
1F
100
AcDbEntity
  8
0
 62
2
100
AcDbCircle
 10
414.64685694340176
 20
133.38735982902145
 30
0
 40
52.0000016927244
100
AcDbArc
 50
64.655627645633
 51
91.999992169038492
  0
LINE
  5
285
330
1F
100
AcDbEntity
  8
0
 62
2
100
AcDbLine
 10
357.12173315862253
 20
80.274264773743312
 30
0
 11
586.937567990122
 21
88.299610567447658
 31
0
  0
LINE
  5
286
330
1F
100
AcDbEntity
  8
0
 62
2
100
AcDbLine
 10
586.937567990122
 20
88.299610567447658
 30
0
 11
590.04043896128678
 21
85.406136576497872
 31
0
  0
LINE
  5
287
330
1F
100
AcDbEntity
  8
0
 62
2
100
AcDbLine
 10
590.04043896128678
 20
85.406136576497872
 30
0
 11
633.014244523108
 21
86.9068149347054
 31
0
  0
LINE
  5
288
330
1F
100
AcDbEntity
  8
0
 62
2
100
AcDbLine
 10
633.014244523108
 20
86.9068149347054
 30
0
 11
631.89746062862787
 21
118.88732139931646
 31
0
  0
LINE
  5
289
330
1F
100
AcDbEntity
  8
0
 62
2
100
AcDbLine
 10
631.89746062862787
 20
118.88732139931646
 30
0
 11
588.92365506680676
 21
117.38664304110894
 31
0
  0
LINE
  5
28A
330
1F
100
AcDbEntity
  8
0
 62
2
100
AcDbLine
 10
588.92365506680676
 20
117.38664304110894
 30
0
 11
586.03018107585706
 21
114.28377206994415
 31
0
  0
LINE
  5
28B
330
1F
100
AcDbEntity
  8
0
 62
2
100
AcDbLine
 10
586.03018107585706
 20
114.28377206994415
 30
0
 11
356.21434612350049
 21
106.25842973713314
 31
0
  0
ARC
  5
28C
330
1F
100
AcDbEntity
  8
0
 62
2
100
AcDbCircle
 10
355.30695920417463
 20
132.24259121334342
 30
0
 40
25.9999999739064
100
AcDbArc
 50
244.65563549479754
 51
272.00000001316727
  0
LINE
  5
28D
330
1F
100
AcDbEntity
  8
0
 62
2
100
AcDbLine
 10
344.17745713373756
 20
108.74505554878341
 30
0
 11
278.8867524940332
 21
139.66970409380437
 31
0
  0
ARC
  5
28E
330
1F
100
AcDbEntity
  8
0
 62
2
100
AcDbCircle
 10
256.62774833831463
 20
92.674632714166478
 30
0
 40
51.9999999998227
100
AcDbArc
 50
64.655635503842433
 51
92.000000000038185
  0
LINE
  5
28F
330
1F
100
AcDbEntity
  8
0
 62
2
100
AcDbLine
 10
254.81297450975615
 20
144.64295571898106
 30
0
 11
140.74650307710476
 21
140.6596667633444
 31
0
  0
ARC
  5
290
330
1F
100
AcDbEntity
  8
0
 62
2
100
AcDbCircle
 10
139.839116164002
 20
166.64382826708794
 30
0
 40
26.0000000012057
100
AcDbArc
 50
182.000000002657
 51
271.99999999734439
  0
LINE
  5
291
330
1F
100
AcDbEntity
  8
0
 62
2
100
AcDbLine
 10
113.85495466034331
 20
165.73644135157588
 30
0
 11
112.25700170154232
 21
211.4958270155299
 31
0
  0
LINE
  5
292
330
1F
100
AcDbEntity
  8
0
 62
2
100
AcDbLine
 10
112.25700170154232
 20
211.4958270155299
 30
0
 11
115.15047569249623
 21
214.59869798669482
 31
0
  0
LINE
  5
293
330
1F
100
AcDbEntity
  8
0
 62
2
100
AcDbLine
 10
115.15047569249623
 20
214.59869798669482
 30
0
 11
113.64979733434166
 21
257.57250354851777
 31
0
  0
LINE
  5
294
330
1F
100
AcDbEntity
  8
0
 62
2
100
AcDbLine
 10
113.64979733434166
 20
257.57250354851777
 30
0
 11
81.6692908697305
 21
256.45571965403775
 31
0
  0
LINE
  5
295
330
1F
100
AcDbEntity
  8
0
 62
2
100
AcDbLine
 10
81.6692908697305
 20
256.45571965403775
 30
0
 11
83.169969227885076
 21
213.48191409221479
 31
0
  0
LINE
  5
296
330
1F
100
AcDbEntity
  8
0
 62
2
100
AcDbLine
 10
83.169969227885076
 20
213.48191409221479
 30
0
 11
86.272840199045959
 21
210.58844010126487
 31
0
  0
LINE
  5
297
330
1F
100
AcDbEntity
  8
0
 62
2
100
AcDbLine
 10
86.272840199045959
 20
210.58844010126487
 30
0
 11
87.87079315784672
 21
164.82905443731084
 31
0
  0
ARC
  5
298
330
1F
100
AcDbEntity
  8
0
 62
2
100
AcDbCircle
 10
139.8391161654497
 20
166.64382826864028
 30
0
 40
52.0000000027066
100
AcDbArc
 50
182.0000000029822
 51
271.99999999701839
  0
LINE
  5
299
330
1F
100
AcDbEntity
  8
0
 62
2
100
AcDbLine
 10
141.65388999136985
 20
114.67550526084794
 30
0
 11
255.72036142402123
 21
118.65879421648458
 31
0
  0
ARC
  5
29A
330
1F
100
AcDbEntity
  8
0
 62
2
100
AcDbCircle
 10
256.62774832283105
 20
92.6746326461856
 30
0
 40
26.0000000672217
100
AcDbArc
 50
64.655635558259
 51
91.999999960747843
  0
LINE
  5
29B
330
1F
100
AcDbEntity
  8
0
 62
2
100
AcDbLine
 10
267.75725040718646
 20
116.1721684074069
 30
0
 11
333.04795504800563
 21
85.247519861682221
 31
0
  0
ARC
  5
29C
330
1F
100
AcDbEntity
  8
0
 62
2
100
AcDbCircle
 10
355.30696637375252
 20
132.24258971846203
 30
0
 40
52.0000016927244
100
AcDbArc
 50
244.65562764573295
 51
271.99999216913847
  0
LINE
  5
29D
330
1F
100
AcDbEntity
  8
0
 62
2
100
AcDbLine
 10
317.08929590013315
 20
43.785023100000053
 30
0
 11
547.01019026344136
 21
47.79830723946543
 31
0
  0
LINE
  5
29E
330
1F
100
AcDbEntity
  8
0
 62
2
100
AcDbLine
 10
547.01019026344136
 20
47.79830723946543
 30
0
 11
550.06209056822229
 21
44.851121373308111
 31
0
  0
LINE
  5
29F
330
1F
100
AcDbEntity
  8
0
 62
2
100
AcDbLine
 10
550.06209056822229
 20
44.851121373308111
 30
0
 11
593.05554145994711
 21
45.601574850111291
 31
0
  0
LINE
  5
2A0
330
1F
100
AcDbEntity
  8
0
 62
2
100
AcDbLine
 10
593.05554145994711
 20
45.601574850111291
 30
0
 11
592.49706445395407
 21
77.596701095115819
 31
0
  0
LINE
  5
2A1
330
1F
100
AcDbEntity
  8
0
 62
2
100
AcDbLine
 10
592.49706445395407
 20
77.596701095115819
 30
0
 11
549.50361356222925
 21
76.846247618312631
 31
0
  0
LINE
  5
2A2
330
1F
100
AcDbEntity
  8
0
 62
2
100
AcDbLine
 10
549.50361356222925
 20
76.846247618312631
 30
0
 11
546.55642769607186
 21
73.7943473135316
 31
0
  0
LINE
  5
2A3
330
1F
100
AcDbEntity
  8
0
 62
2
100
AcDbLine
 10
546.55642769607186
 20
73.7943473135316
 30
0
 11
316.63553327232603
 21
69.781066636541709
 31
0
  0
ARC
  5
2A4
330
1F
100
AcDbEntity
  8
0
 62
2
100
AcDbCircle
 10
316.18177069943783
 20
95.77710668441398
 30
0
 40
25.9999999739064
100
AcDbArc
 50
243.65563549479774
 51
271.00000001316727
  0
LINE
  5
2A5
330
1F
100
AcDbEntity
  8
0
 62
2
100
AcDbLine
 10
304.6438751633807
 20
72.477386401926424
 30
0
 11
239.90282414957346
 21
104.53680488713583
 31
0
  0
ARC
  5
2A6
330
1F
100
AcDbEntity
  8
0
 62
2
100
AcDbCircle
 10
216.82703306173505
 20
57.937364271909587
 30
0
 40
51.9999999998227
100
AcDbArc
 50
63.655635503842355
 51
91.000000000038142
  0
LINE
  5
2A7
330
1F
100
AcDbEntity
  8
0
 62
2
100
AcDbLine
 10
215.9195079269648
 20
109.92944441986404
 30
0
 11
101.80089139259508
 21
107.93749655873826
 31
0
  0
ARC
  5
2A8
330
1F
100
AcDbEntity
  8
0
 62
2
100
AcDbCircle
 10
101.34712882640952
 20
133.933536634031
 30
0
 40
26.0000000012057
100
AcDbArc
 50
181.00000000265698
 51
270.99999999734445
  0
LINE
  5
2A9
330
1F
100
AcDbEntity
  8
0
 62
2
100
AcDbLine
 10
75.351088751159523
 20
133.47977406543507
 30
0
 11
74.5519905652618
 21
179.26007847781656
 31
0
  0
LINE
  5
2AA
330
1F
100
AcDbEntity
  8
0
 62
2
100
AcDbLine
 10
74.5519905652618
 20
179.26007847781656
 30
0
 11
77.499176431423166
 21
182.31197878259763
 31
0
  0
LINE
  5
2AB
330
1F
100
AcDbEntity
  8
0
 62
2
100
AcDbLine
 10
77.499176431423166
 20
182.31197878259763
 30
0
 11
76.748722954672985
 21
225.30542967432339
 31
0
  0
LINE
  5
2AC
330
1F
100
AcDbEntity
  8
0
 62
2
100
AcDbLine
 10
76.748722954672985
 20
225.30542967432339
 30
0
 11
44.753596709668273
 21
224.74695266833035
 31
0
  0
LINE
  5
2AD
330
1F
100
AcDbEntity
  8
0
 62
2
100
AcDbLine
 10
44.753596709668273
 20
224.74695266833035
 30
0
 11
45.504050186418681
 21
181.75350177660459
 31
0
  0
LINE
  5
2AE
330
1F
100
AcDbEntity
  8
0
 62
2
100
AcDbLine
 10
45.504050186418681
 20
181.75350177660459
 30
0
 11
48.555950491195745
 21
178.80631591044721
 31
0
  0
LINE
  5
2AF
330
1F
100
AcDbEntity
  8
0
 62
2
100
AcDbLine
 10
48.555950491195745
 20
178.80631591044721
 30
0
 11
49.355048677093237
 21
133.02601149806571
 31
0
  0
ARC
  5
2B0
330
1F
100
AcDbEntity
  8
0
 62
2
100
AcDbCircle
 10
101.34712882788403
 20
133.93353663555783
 30
0
 40
52.0000000027066
100
AcDbArc
 50
181.00000000298218
 51
270.99999999701828
  0
LINE
  5
2B1
330
1F
100
AcDbEntity
  8
0
 62
2
100
AcDbLine
 10
102.25465395996434
 20
81.941456484672116
 30
0
 11
216.37327049433418
 21
83.9334043457979
 31
0
  0
ARC
  5
2B2
330
1F
100
AcDbEntity
  8
0
 62
2
100
AcDbCircle
 10
216.82703304506742
 20
57.937364204209288
 30
0
 40
26.0000000672217
100
AcDbArc
 50
63.655635558259029
 51
90.999999960747942
  0
LINE
  5
2B3
330
1F
100
AcDbEntity
  8
0
 62
2
100
AcDbLine
 10
228.36492859672785
 20
81.237084583100511
 30
0
 11
293.10597961163751
 21
49.177666097168036
 31
0
  0
ARC
  5
2B4
330
1F
100
AcDbEntity
  8
0
 62
2
100
AcDbCircle
 10
316.18177784183456
 20
95.777105064633886
 30
0
 40
52.0000016927244
100
AcDbArc
 50
243.65562764573295
 51
270.99999216913852
  0
LINE
  5
2B5
330
1F
100
AcDbEntity
  8
0
 62
2
100
AcDbLine
 10
405.6345183364549
 20
405.07364680594014
 30
0
 11
175.71362397313987
 21
401.0603626668759
 31
0
  0
LINE
  5
2B6
330
1F
100
AcDbEntity
  8
0
 62
2
100
AcDbLine
 10
175.71362397313987
 20
401.0603626668759
 30
0
 11
172.66172366836395
 21
404.00754853303857
 31
0
  0
LINE
  5
2B7
330
1F
100
AcDbEntity
  8
0
 62
2
100
AcDbLine
 10
172.66172366836395
 20
404.00754853303857
 30
0
 11
129.66827277663788
 21
403.25709505631039
 31
0
  0
LINE
  5
2B8
330
1F
100
AcDbEntity
  8
0
 62
2
100
AcDbLine
 10
129.66827277663788
 20
403.25709505631039
 30
0
 11
130.2267497825751
 21
371.26196881130488
 31
0
  0
LINE
  5
2B9
330
1F
100
AcDbEntity
  8
0
 62
2
100
AcDbLine
 10
130.2267497825751
 20
371.26196881130488
 30
0
 11
173.22020067430117
 21
372.01242228803306
 31
0
  0
LINE
  5
2BA
330
1F
100
AcDbEntity
  8
0
 62
2
100
AcDbLine
 10
173.22020067430117
 20
372.01242228803306
 30
0
 11
176.16738654046389
 21
375.06432259280894
 31
0
  0
LINE
  5
2BB
330
1F
100
AcDbEntity
  8
0
 62
2
100
AcDbLine
 10
176.16738654046389
 20
375.06432259280894
 30
0
 11
406.08828096421666
 21
379.07760326939768
 31
0
  0
ARC
  5
2BC
330
1F
100
AcDbEntity
  8
0
 62
2
100
AcDbCircle
 10
406.5420435370595
 20
353.08156322152462
 30
0
 40
25.9999999739064
100
AcDbArc
 50
63.655635494697691
 51
91.000000013067321
  0
LINE
  5
2BD
330
1F
100
AcDbEntity
  8
0
 62
2
100
AcDbLine
 10
418.07993907315733
 20
376.38128350399205
 30
0
 11
482.82099008690864
 21
344.32186501866971
 31
0
  0
ARC
  5
2BE
330
1F
100
AcDbEntity
  8
0
 62
2
100
AcDbCircle
 10
505.89678117482833
 20
390.9213056338557
 30
0
 40
51.9999999998227
100
AcDbArc
 50
243.65563550374245
 51
270.99999999993815
  0
LINE
  5
2BF
330
1F
100
AcDbEntity
  8
0
 62
2
100
AcDbLine
 10
506.80430630950787
 20
338.92922548589962
 30
0
 11
620.92292284388111
 21
340.92117334682632
 31
0
  0
ARC
  5
2C0
330
1F
100
AcDbEntity
  8
0
 62
2
100
AcDbCircle
 10
621.37668541002142
 20
314.92513327153284
 30
0
 40
26.0000000012057
100
AcDbArc
 50
1.0000000025569493
 51
90.999999997244757
  0
LINE
  5
2C1
330
1F
100
AcDbEntity
  8
0
 62
2
100
AcDbLine
 10
647.3727254852721
 20
315.37889584008337
 30
0
 11
648.17182367109
 21
269.59859142770046
 31
0
  0
LINE
  5
2C2
330
1F
100
AcDbEntity
  8
0
 62
2
100
AcDbLine
 10
648.17182367109
 20
269.59859142770046
 30
0
 11
645.2246378049233
 21
266.54669112292453
 31
0
  0
LINE
  5
2C3
330
1F
100
AcDbEntity
  8
0
 62
2
100
AcDbLine
 10
645.2246378049233
 20
266.54669112292453
 30
0
 11
645.97509128159857
 21
223.55324023119744
 31
0
  0
LINE
  5
2C4
330
1F
100
AcDbEntity
  8
0
 62
2
100
AcDbLine
 10
645.97509128159857
 20
223.55324023119744
 30
0
 11
677.97021752660407
 21
224.11171723713468
 31
0
  0
LINE
  5
2C5
330
1F
100
AcDbEntity
  8
0
 62
2
100
AcDbLine
 10
677.97021752660407
 20
224.11171723713468
 30
0
 11
677.21976404992881
 21
267.10516812886175
 31
0
  0
LINE
  5
2C6
330
1F
100
AcDbEntity
  8
0
 62
2
100
AcDbLine
 10
677.21976404992881
 20
267.10516812886175
 30
0
 11
674.167863745157
 21
270.05235399502448
 31
0
  0
LINE
  5
2C7
330
1F
100
AcDbEntity
  8
0
 62
2
100
AcDbLine
 10
674.167863745157
 20
270.05235399502448
 30
0
 11
673.36876555933929
 21
315.83265840740739
 31
0
  0
ARC
  5
2C8
330
1F
100
AcDbEntity
  8
0
 62
2
100
AcDbCircle
 10
621.3766854085469
 20
314.925133270006
 30
0
 40
52.0000000027066
100
AcDbArc
 50
1.0000000028822522
 51
90.9999999969186
  0
LINE
  5
2C9
330
1F
100
AcDbEntity
  8
0
 62
2
100
AcDbLine
 10
620.46916027655709
 20
366.91721342089329
 30
0
 11
506.35054374218385
 21
364.92526555996659
 31
0
  0
ARC
  5
2CA
330
1F
100
AcDbEntity
  8
0
 62
2
100
AcDbCircle
 10
505.89678119149596
 20
390.921305701556
 30
0
 40
26.0000000672217
100
AcDbArc
 50
243.65563555815919
 51
270.999999960648
  0
LINE
  5
2CB
330
1F
100
AcDbEntity
  8
0
 62
2
100
AcDbLine
 10
494.35888563979495
 20
367.62158532268489
 30
0
 11
429.61783462494111
 21
399.68100380873034
 31
0
  0
ARC
  5
2CC
330
1F
100
AcDbEntity
  8
0
 62
2
100
AcDbCircle
 10
406.54203639466277
 20
353.08156484130473
 30
0
 40
52.0000016927244
100
AcDbArc
 50
63.655627645633039
 51
90.9999921690385
  0
LINE
  5
2CD
330
1F
100
AcDbEntity
  8
0
 62
2
100
AcDbLine
 10
365.60208107796552
 20
368.58440513219688
 30
0
 11
135.78624624645204
 21
360.55905933889352
 31
0
  0
LINE
  5
2CE
330
1F
100
AcDbEntity
  8
0
 62
2
100
AcDbLine
 10
135.78624624645204
 20
360.55905933889352
 30
0
 11
132.68337527529229
 21
363.45253332984873
 31
0
  0
LINE
  5
2CF
330
1F
100
AcDbEntity
  8
0
 62
2
100
AcDbLine
 10
132.68337527529229
 20
363.45253332984873
 30
0
 11
89.709569713468682
 21
361.95185497171616
 31
0
  0
LINE
  5
2D0
330
1F
100
AcDbEntity
  8
0
 62
2
100
AcDbLine
 10
89.709569713468682
 20
361.95185497171616
 30
0
 11
90.826353607893
 21
329.97134850710319
 31
0
  0
LINE
  5
2D1
330
1F
100
AcDbEntity
  8
0
 62
2
100
AcDbLine
 10
90.826353607893
 20
329.97134850710319
 30
0
 11
133.80015916971661
 21
331.4720268652357
 31
0
  0
LINE
  5
2D2
330
1F
100
AcDbEntity
  8
0
 62
2
100
AcDbLine
 10
133.80015916971661
 20
331.4720268652357
 30
0
 11
136.69363316067188
 21
334.57489783639545
 31
0
  0
LINE
  5
2D3
330
1F
100
AcDbEntity
  8
0
 62
2
100
AcDbLine
 10
136.69363316067188
 20
334.57489783639545
 30
0
 11
366.50946811304232
 21
342.60024016880544
 31
0
  0
ARC
  5
2D4
330
1F
100
AcDbEntity
  8
0
 62
2
100
AcDbCircle
 10
367.4168550323227
 20
316.61607869259365
 30
0
 40
25.9999999739064
100
AcDbArc
 50
64.6556354946974
 51
92.000000013067023
  0
LINE
  5
2D5
330
1F
100
AcDbEntity
  8
0
 62
2
100
AcDbLine
 10
378.54635710280081
 20
340.11361435713417
 30
0
 11
443.83706174245117
 21
309.18896581199931
 31
0
  0
ARC
  5
2D6
330
1F
100
AcDbEntity
  8
0
 62
2
100
AcDbCircle
 10
466.09606589825182
 20
356.18403719159835
 30
0
 40
51.9999999998227
100
AcDbArc
 50
244.65563550374236
 51
271.99999999993815
  0
LINE
  5
2D7
330
1F
100
AcDbEntity
  8
0
 62
2
100
AcDbLine
 10
467.91083972671959
 20
304.21571418678064
 30
0
 11
581.977311159378
 21
308.19900314221826
 31
0
  0
ARC
  5
2D8
330
1F
100
AcDbEntity
  8
0
 62
2
100
AcDbCircle
 10
582.88469807243553
 20
282.21484163847316
 30
0
 40
26.0000000012057
100
AcDbArc
 50
2.0000000025569982
 51
91.999999997244615
  0
LINE
  5
2D9
330
1F
100
AcDbEntity
  8
0
 62
2
100
AcDbLine
 10
608.86885957609582
 20
283.12222855393986
 30
0
 11
610.46681253481677
 21
237.362842889983
 31
0
  0
LINE
  5
2DA
330
1F
100
AcDbEntity
  8
0
 62
2
100
AcDbLine
 10
610.46681253481677
 20
237.362842889983
 30
0
 11
607.57333854385763
 21
234.25997191882311
 31
0
  0
LINE
  5
2DB
330
1F
100
AcDbEntity
  8
0
 62
2
100
AcDbLine
 10
607.57333854385763
 20
234.25997191882311
 30
0
 11
609.07401690193717
 21
191.28616635699754
 31
0
  0
LINE
  5
2DC
330
1F
100
AcDbEntity
  8
0
 62
2
100
AcDbLine
 10
609.07401690193717
 20
191.28616635699754
 30
0
 11
641.05452336655026
 21
192.40295025142177
 31
0
  0
LINE
  5
2DD
330
1F
100
AcDbEntity
  8
0
 62
2
100
AcDbLine
 10
641.05452336655026
 20
192.40295025142177
 30
0
 11
639.5538450084706
 21
235.37675581324734
 31
0
  0
LINE
  5
2DE
330
1F
100
AcDbEntity
  8
0
 62
2
100
AcDbLine
 10
639.5538450084706
 20
235.37675581324734
 30
0
 11
636.450974037315
 21
238.27022980420267
 31
0
  0
LINE
  5
2DF
330
1F
100
AcDbEntity
  8
0
 62
2
100
AcDbLine
 10
636.450974037315
 20
238.27022980420267
 30
0
 11
634.853021078594
 21
284.02961546815953
 31
0
  0
ARC
  5
2E0
330
1F
100
AcDbEntity
  8
0
 62
2
100
AcDbCircle
 10
582.88469807098784
 20
282.21484163692077
 30
0
 40
52.0000000027066
100
AcDbArc
 50
2.0000000028822731
 51
91.999999996918518
  0
LINE
  5
2E1
330
1F
100
AcDbEntity
  8
0
 62
2
100
AcDbLine
 10
581.06992424515829
 20
334.18316464471627
 30
0
 11
467.00345281249986
 21
330.19987568927866
 31
0
  0
ARC
  5
2E2
330
1F
100
AcDbEntity
  8
0
 62
2
100
AcDbCircle
 10
466.09606591373529
 20
356.18403725957921
 30
0
 40
26.0000000672217
100
AcDbArc
 50
244.6556355581591
 51
271.99999996064804
  0
LINE
  5
2E3
330
1F
100
AcDbEntity
  8
0
 62
2
100
AcDbLine
 10
454.96656382933895
 20
332.68650149837737
 30
0
 11
389.67585918857367
 21
363.61115004421595
 31
0
  0
ARC
  5
2E4
330
1F
100
AcDbEntity
  8
0
 62
2
100
AcDbCircle
 10
367.41684786274482
 20
316.616080187475
 30
0
 40
52.0000016927244
100
AcDbArc
 50
64.65562764563299
 51
91.999992169038492
  0
LINE
  5
2E5
330
1F
100
AcDbEntity
  8
0
 62
2
100
AcDbLine
 10
317.36937635800734
 20
261.27123681332154
 30
0
 11
547.18521118950684
 21
269.29658260702587
 31
0
  0
LINE
  5
2E6
330
1F
100
AcDbEntity
  8
0
 62
2
100
AcDbLine
 10
547.18521118950684
 20
269.29658260702587
 30
0
 11
550.28808216067159
 21
266.40310861607611
 31
0
  0
LINE
  5
2E7
330
1F
100
AcDbEntity
  8
0
 62
2
100
AcDbLine
 10
550.28808216067159
 20
266.40310861607611
 30
0
 11
593.26188772249282
 21
267.90378697428366
 31
0
  0
LINE
  5
2E8
330
1F
100
AcDbEntity
  8
0
 62
2
100
AcDbLine
 10
593.26188772249282
 20
267.90378697428366
 30
0
 11
592.14510382801268
 21
299.8842934388947
 31
0
  0
LINE
  5
2E9
330
1F
100
AcDbEntity
  8
0
 62
2
100
AcDbLine
 10
592.14510382801268
 20
299.8842934388947
 30
0
 11
549.17129826619157
 21
298.38361508068721
 31
0
  0
LINE
  5
2EA
330
1F
100
AcDbEntity
  8
0
 62
2
100
AcDbLine
 10
549.17129826619157
 20
298.38361508068721
 30
0
 11
546.27782427524187
 21
295.2807441095224
 31
0
  0
LINE
  5
2EB
330
1F
100
AcDbEntity
  8
0
 62
2
100
AcDbLine
 10
546.27782427524187
 20
295.2807441095224
 30
0
 11
316.4619893228853
 21
287.25540177671138
 31
0
  0
ARC
  5
2EC
330
1F
100
AcDbEntity
  8
0
 62
2
100
AcDbCircle
 10
315.55460240355944
 20
313.23956325292164
 30
0
 40
25.9999999739064
100
AcDbArc
 50
244.65563549479754
 51
272.00000001316727
  0
LINE
  5
2ED
330
1F
100
AcDbEntity
  8
0
 62
2
100
AcDbLine
 10
304.42510033312237
 20
289.74202758836162
 30
0
 11
239.134395693418
 21
320.66667613338262
 31
0
  0
ARC
  5
2EE
330
1F
100
AcDbEntity
  8
0
 62
2
100
AcDbCircle
 10
216.87539153769944
 20
273.6716047537447
 30
0
 40
51.9999999998227
100
AcDbArc
 50
64.655635503842447
 51
92.000000000038185
  0
LINE
  5
2EF
330
1F
100
AcDbEntity
  8
0
 62
2
100
AcDbLine
 10
215.06061770914096
 20
325.63992775855928
 30
0
 11
100.99414627648957
 21
321.6566388029226
 31
0
  0
ARC
  5
2F0
330
1F
100
AcDbEntity
  8
0
 62
2
100
AcDbCircle
 10
100.08675936338659
 20
347.64080030666616
 30
0
 40
26.0000000012057
100
AcDbArc
 50
182.00000000265703
 51
271.9999999973449
  0
LINE
  5
2F1
330
1F
100
AcDbEntity
  8
0
 62
2
100
AcDbLine
 10
74.102597859728121
 20
346.7334133911541
 30
0
 11
72.504644900927133
 21
392.49279905510815
 31
0
  0
LINE
  5
2F2
330
1F
100
AcDbEntity
  8
0
 62
2
100
AcDbLine
 10
72.504644900927133
 20
392.49279905510815
 30
0
 11
75.39811889188104
 21
395.595670026273
 31
0
  0
LINE
  5
2F3
330
1F
100
AcDbEntity
  8
0
 62
2
100
AcDbLine
 10
75.39811889188104
 20
395.595670026273
 30
0
 11
73.897440533726467
 21
438.56947558809605
 31
0
  0
LINE
  5
2F4
330
1F
100
AcDbEntity
  8
0
 62
2
100
AcDbLine
 10
73.897440533726467
 20
438.56947558809605
 30
0
 11
41.916934069115314
 21
437.45269169361603
 31
0
  0
LINE
  5
2F5
330
1F
100
AcDbEntity
  8
0
 62
2
100
AcDbLine
 10
41.916934069115314
 20
437.45269169361603
 30
0
 11
43.417612427269887
 21
394.478886131793
 31
0
  0
LINE
  5
2F6
330
1F
100
AcDbEntity
  8
0
 62
2
100
AcDbLine
 10
43.417612427269887
 20
394.478886131793
 30
0
 11
46.52048339843077
 21
391.58541214084306
 31
0
  0
LINE
  5
2F7
330
1F
100
AcDbEntity
  8
0
 62
2
100
AcDbLine
 10
46.52048339843077
 20
391.58541214084306
 30
0
 11
48.118436357231531
 21
345.82602647688907
 31
0
  0
ARC
  5
2F8
330
1F
100
AcDbEntity
  8
0
 62
2
100
AcDbCircle
 10
100.08675936483451
 20
347.6408003082185
 30
0
 40
52.0000000027066
100
AcDbArc
 50
182.0000000029822
 51
271.99999999701839
  0
LINE
  5
2F9
330
1F
100
AcDbEntity
  8
0
 62
2
100
AcDbLine
 10
101.90153319075466
 20
295.67247730042612
 30
0
 11
215.96800462340605
 21
299.6557662560628
 31
0
  0
ARC
  5
2FA
330
1F
100
AcDbEntity
  8
0
 62
2
100
AcDbCircle
 10
216.87539152221586
 20
273.67160468576384
 30
0
 40
26.0000000672217
100
AcDbArc
 50
64.655635558258979
 51
91.999999960747843
  0
LINE
  5
2FB
330
1F
100
AcDbEntity
  8
0
 62
2
100
AcDbLine
 10
228.00489360657127
 20
297.16914044698512
 30
0
 11
293.29559824739044
 21
266.24449190126046
 31
0
  0
ARC
  5
2FC
330
1F
100
AcDbEntity
  8
0
 62
2
100
AcDbCircle
 10
315.55460957313733
 20
313.23956175804022
 30
0
 40
52.0000016927244
100
AcDbArc
 50
244.65562764573289
 51
271.99999216913847
  0
LINE
  5
2FD
330
1F
100
AcDbEntity
  8
0
 62
2
100
AcDbLine
 10
277.33693909951796
 20
224.78199513957824
 30
0
 11
507.25783346282617
 21
228.79527927904363
 31
0
  0
LINE
  5
2FE
330
1F
100
AcDbEntity
  8
0
 62
2
100
AcDbLine
 10
507.25783346282617
 20
228.79527927904363
 30
0
 11
510.3097337676071
 21
225.8480934128863
 31
0
  0
LINE
  5
2FF
330
1F
100
AcDbEntity
  8
0
 62
2
100
AcDbLine
 10
510.3097337676071
 20
225.8480934128863
 30
0
 11
553.30318465933192
 21
226.59854688968946
 31
0
  0
LINE
  5
300
330
1F
100
AcDbEntity
  8
0
 62
2
100
AcDbLine
 10
553.30318465933192
 20
226.59854688968946
 30
0
 11
552.74470765333888
 21
258.59367313469403
 31
0
  0
LINE
  5
301
330
1F
100
AcDbEntity
  8
0
 62
2
100
AcDbLine
 10
552.74470765333888
 20
258.59367313469403
 30
0
 11
509.75125676161406
 21
257.84321965789081
 31
0
  0
LINE
  5
302
330
1F
100
AcDbEntity
  8
0
 62
2
100
AcDbLine
 10
509.75125676161406
 20
257.84321965789081
 30
0
 11
506.80407089545668
 21
254.7913193531098
 31
0
  0
LINE
  5
303
330
1F
100
AcDbEntity
  8
0
 62
2
100
AcDbLine
 10
506.80407089545668
 20
254.7913193531098
 30
0
 11
276.88317647171084
 21
250.77803867611991
 31
0
  0
ARC
  5
304
330
1F
100
AcDbEntity
  8
0
 62
2
100
AcDbCircle
 10
276.42941389882265
 20
276.77407872399215
 30
0
 40
25.9999999739064
100
AcDbArc
 50
243.65563549479771
 51
271.00000001316727
  0
LINE
  5
305
330
1F
100
AcDbEntity
  8
0
 62
2
100
AcDbLine
 10
264.89151836276551
 20
253.47435844150462
 30
0
 11
200.15046734895827
 21
285.53377692671404
 31
0
  0
ARC
  5
306
330
1F
100
AcDbEntity
  8
0
 62
2
100
AcDbCircle
 10
177.07467626111998
 20
238.93433631148778
 30
0
 40
51.9999999998227
100
AcDbArc
 50
63.655635503842468
 51
91.00000000003827
  0
LINE
  5
307
330
1F
100
AcDbEntity
  8
0
 62
2
100
AcDbLine
 10
176.16715112634961
 20
290.92641645944224
 30
0
 11
62.048534591979887
 21
288.93446859831641
 31
0
  0
ARC
  5
308
330
1F
100
AcDbEntity
  8
0
 62
2
100
AcDbCircle
 10
61.5947720257941
 20
314.93050867360915
 30
0
 40
26.0000000012057
100
AcDbArc
 50
181.00000000265692
 51
270.99999999734496
  0
LINE
  5
309
330
1F
100
AcDbEntity
  8
0
 62
2
100
AcDbLine
 10
35.598731950544334
 20
314.47674610501326
 30
0
 11
34.799633764646615
 21
360.25705051739476
 31
0
  0
LINE
  5
30A
330
1F
100
AcDbEntity
  8
0
 62
2
100
AcDbLine
 10
34.799633764646615
 20
360.25705051739476
 30
0
 11
37.746819630807977
 21
363.30895082217586
 31
0
  0
LINE
  5
30B
330
1F
100
AcDbEntity
  8
0
 62
2
100
AcDbLine
 10
37.746819630807977
 20
363.30895082217586
 30
0
 11
36.996366154057796
 21
406.30240171390159
 31
0
  0
LINE
  5
30C
330
1F
100
AcDbEntity
  8
0
 62
2
100
AcDbLine
 10
36.996366154057796
 20
406.30240171390159
 30
0
 11
5.0012399090533108
 21
405.74392470790855
 31
0
  0
LINE
  5
30D
330
1F
100
AcDbEntity
  8
0
 62
2
100
AcDbLine
 10
5.0012399090533108
 20
405.74392470790855
 30
0
 11
5.7516933858032644
 21
362.75047381618276
 31
0
  0
LINE
  5
30E
330
1F
100
AcDbEntity
  8
0
 62
2
100
AcDbLine
 10
5.7516933858032644
 20
362.75047381618276
 30
0
 11
8.8035936905805556
 21
359.80328795002538
 31
0
  0
LINE
  5
30F
330
1F
100
AcDbEntity
  8
0
 62
2
100
AcDbLine
 10
8.8035936905805556
 20
359.80328795002538
 30
0
 11
9.6026918764780476
 21
314.02298353764388
 31
0
  0
ARC
  5
310
330
1F
100
AcDbEntity
  8
0
 62
2
100
AcDbCircle
 10
61.594772027268846
 20
314.930508675136
 30
0
 40
52.0000000027066
100
AcDbArc
 50
181.00000000298223
 51
270.99999999701828
  0
LINE
  5
311
330
1F
100
AcDbEntity
  8
0
 62
2
100
AcDbLine
 10
62.502297159349155
 20
262.9384285242503
 30
0
 11
176.6209136937191
 21
264.93037638537606
 31
0
  0
ARC
  5
312
330
1F
100
AcDbEntity
  8
0
 62
2
100
AcDbCircle
 10
177.07467624445235
 20
238.93433624378747
 30
0
 40
26.0000000672217
100
AcDbArc
 50
63.655635558259227
 51
90.999999960747942
  0
LINE
  5
313
330
1F
100
AcDbEntity
  8
0
 62
2
100
AcDbLine
 10
188.61257179611266
 20
262.23405662267868
 30
0
 11
253.35362281102232
 21
230.17463813674621
 31
0
  0
ARC
  5
314
330
1F
100
AcDbEntity
  8
0
 62
2
100
AcDbCircle
 10
276.42942104121937
 20
276.7740771042121
 30
0
 40
52.0000016927244
100
AcDbArc
 50
243.655627645733
 51
270.99999216913852
  0
LINE
  5
315
330
1F
100
AcDbEntity
  8
0
 62
2
100
AcDbLine
 10
446.29768348640005
 20
440.85866980594011
 30
0
 11
216.34176572300009
 21
440.85866980634148
 31
0
  0
LINE
  5
316
330
1F
100
AcDbEntity
  8
0
 62
2
100
AcDbLine
 10
216.34176572300009
 20
440.85866980634148
 30
0
 11
213.34176572300532
 21
443.85866980634671
 31
0
  0
LINE
  5
317
330
1F
100
AcDbEntity
  8
0
 62
2
100
AcDbLine
 10
213.34176572300532
 20
443.85866980634671
 30
0
 11
170.34176572300544
 21
443.8586698064218
 31
0
  0
LINE
  5
318
330
1F
100
AcDbEntity
  8
0
 62
2
100
AcDbLine
 10
170.34176572300544
 20
443.8586698064218
 30
0
 11
170.3417657229495
 21
411.8586698064218
 31
0
  0
LINE
  5
319
330
1F
100
AcDbEntity
  8
0
 62
2
100
AcDbLine
 10
170.3417657229495
 20
411.8586698064218
 30
0
 11
213.34176572294939
 21
411.85866980634671
 31
0
  0
LINE
  5
31A
330
1F
100
AcDbEntity
  8
0
 62
2
100
AcDbLine
 10
213.34176572294939
 20
411.85866980634671
 30
0
 11
216.34176572295462
 21
414.85866980634148
 31
0
  0
LINE
  5
31B
330
1F
100
AcDbEntity
  8
0
 62
2
100
AcDbLine
 10
216.34176572295462
 20
414.85866980634148
 30
0
 11
446.29768348635469
 21
414.85866634293717
 31
0
  0
ARC
  5
31C
330
1F
100
AcDbEntity
  8
0
 62
2
100
AcDbCircle
 10
446.29768349228436
 20
388.8586663690308
 30
0
 40
25.9999999739064
100
AcDbArc
 50
62.655635494697648
 51
90.000000013067137
  0
LINE
  5
31D
330
1F
100
AcDbEntity
  8
0
 62
2
100
AcDbLine
 10
458.24045793925166
 20
411.95347394891758
 30
0
 11
522.41213457580443
 21
378.76905113284482
 31
0
  0
ARC
  5
31E
330
1F
100
AcDbEntity
  8
0
 62
2
100
AcDbCircle
 10
546.29768348633763
 20
424.95866634258743
 30
0
 40
51.9999999998227
100
AcDbArc
 50
242.65563550374239
 51
269.9999999999381
  0
LINE
  5
31F
330
1F
100
AcDbEntity
  8
0
 62
2
100
AcDbLine
 10
546.29768348628147
 20
372.95866634276473
 30
0
 11
660.43368348628144
 21
372.95866634256555
 31
0
  0
ARC
  5
320
330
1F
100
AcDbEntity
  8
0
 62
2
100
AcDbCircle
 10
660.43368348503111
 20
346.95866634135984
 30
0
 40
26.0000000012057
100
AcDbArc
 50
2.5570328697976451E-09
 51
89.999999997244672
  0
LINE
  5
321
330
1F
100
AcDbEntity
  8
0
 62
2
100
AcDbLine
 10
686.43368348623608
 20
346.95866634252019
 30
0
 11
686.43368348610215
 21
301.171388305919
 31
0
  0
LINE
  5
322
330
1F
100
AcDbEntity
  8
0
 62
2
100
AcDbLine
 10
686.43368348610215
 20
301.171388305919
 30
0
 11
683.433683486093
 21
298.17138830592421
 31
0
  0
LINE
  5
323
330
1F
100
AcDbEntity
  8
0
 62
2
100
AcDbLine
 10
683.433683486093
 20
298.17138830592421
 30
0
 11
683.43368348596493
 21
255.17138830592418
 31
0
  0
LINE
  5
324
330
1F
100
AcDbEntity
  8
0
 62
2
100
AcDbLine
 10
683.43368348596493
 20
255.17138830592418
 30
0
 11
715.433683485965
 21
255.17138830586833
 31
0
  0
LINE
  5
325
330
1F
100
AcDbEntity
  8
0
 62
2
100
AcDbLine
 10
715.433683485965
 20
255.17138830586833
 30
0
 11
715.43368348609306
 21
298.17138830586833
 31
0
  0
LINE
  5
326
330
1F
100
AcDbEntity
  8
0
 62
2
100
AcDbLine
 10
715.43368348609306
 20
298.17138830586833
 30
0
 11
712.43368348610227
 21
301.17138830587356
 31
0
  0
LINE
  5
327
330
1F
100
AcDbEntity
  8
0
 62
2
100
AcDbLine
 10
712.43368348610227
 20
301.17138830587356
 30
0
 11
712.4336834862363
 21
346.95866634247477
 31
0
  0
ARC
  5
328
330
1F
100
AcDbEntity
  8
0
 62
2
100
AcDbCircle
 10
660.4336834835301
 20
346.95866633985895
 30
0
 40
52.0000000027066
100
AcDbArc
 50
2.8822206094566607E-09
 51
89.999999996918362
  0
LINE
  5
329
330
1F
100
AcDbEntity
  8
0
 62
2
100
AcDbLine
 10
660.43368348632691
 20
398.95866634256555
 30
0
 11
546.297683486327
 21
398.95866634276473
 31
0
  0
ARC
  5
32A
330
1F
100
AcDbEntity
  8
0
 62
2
100
AcDbCircle
 10
546.29768350418431
 20
424.95866640998656
 30
0
 40
26.0000000672217
100
AcDbArc
 50
242.655635558159
 51
269.99999996064804
  0
LINE
  5
32B
330
1F
100
AcDbEntity
  8
0
 62
2
100
AcDbLine
 10
534.35490903993366
 20
401.86385873398314
 30
0
 11
470.18323240229131
 21
435.04828155079804
 31
0
  0
ARC
  5
32C
330
1F
100
AcDbEntity
  8
0
 62
2
100
AcDbCircle
 10
446.29767637924465
 20
388.8586681132162
 30
0
 40
52.0000016927244
100
AcDbArc
 50
62.655627645633004
 51
89.999992169038549
  0
LINE
  5
32D
330
1F
100
AcDbEntity
  8
0
 62
2
100
AcDbLine
 10
484.29768348640005
 20
478.85866980594011
 30
0
 11
254.34176572300009
 21
478.85866980634148
 31
0
  0
LINE
  5
32E
330
1F
100
AcDbEntity
  8
0
 62
2
100
AcDbLine
 10
254.34176572300009
 20
478.85866980634148
 30
0
 11
251.34176572300532
 21
481.85866980634671
 31
0
  0
LINE
  5
32F
330
1F
100
AcDbEntity
  8
0
 62
2
100
AcDbLine
 10
251.34176572300532
 20
481.85866980634671
 30
0
 11
208.34176572300532
 21
481.8586698064218
 31
0
  0
LINE
  5
330
330
1F
100
AcDbEntity
  8
0
 62
2
100
AcDbLine
 10
208.34176572300532
 20
481.8586698064218
 30
0
 11
208.34176572294939
 21
449.8586698064218
 31
0
  0
LINE
  5
331
330
1F
100
AcDbEntity
  8
0
 62
2
100
AcDbLine
 10
208.34176572294939
 20
449.8586698064218
 30
0
 11
251.34176572294939
 21
449.85866980634671
 31
0
  0
LINE
  5
332
330
1F
100
AcDbEntity
  8
0
 62
2
100
AcDbLine
 10
251.34176572294939
 20
449.85866980634671
 30
0
 11
254.34176572295462
 21
452.85866980634148
 31
0
  0
LINE
  5
333
330
1F
100
AcDbEntity
  8
0
 62
2
100
AcDbLine
 10
254.34176572295462
 20
452.85866980634148
 30
0
 11
484.29768348635469
 21
452.85866634293717
 31
0
  0
ARC
  5
334
330
1F
100
AcDbEntity
  8
0
 62
2
100
AcDbCircle
 10
484.29768349228436
 20
426.8586663690308
 30
0
 40
25.9999999739064
100
AcDbArc
 50
62.655635494697648
 51
90.000000013067137
  0
LINE
  5
335
330
1F
100
AcDbEntity
  8
0
 62
2
100
AcDbLine
 10
496.24045793925166
 20
449.95347394891758
 30
0
 11
560.41213457580443
 21
416.76905113284482
 31
0
  0
ARC
  5
336
330
1F
100
AcDbEntity
  8
0
 62
2
100
AcDbCircle
 10
584.29768348633763
 20
462.95866634258743
 30
0
 40
51.9999999998227
100
AcDbArc
 50
242.65563550374239
 51
269.9999999999381
  0
LINE
  5
337
330
1F
100
AcDbEntity
  8
0
 62
2
100
AcDbLine
 10
584.29768348628147
 20
410.95866634276473
 30
0
 11
698.43368348628155
 21
410.95866634256555
 31
0
  0
ARC
  5
338
330
1F
100
AcDbEntity
  8
0
 62
2
100
AcDbCircle
 10
698.43368348503122
 20
384.95866634135984
 30
0
 40
26.0000000012057
100
AcDbArc
 50
2.5570328697976567E-09
 51
89.999999997244672
  0
LINE
  5
339
330
1F
100
AcDbEntity
  8
0
 62
2
100
AcDbLine
 10
724.43368348623608
 20
384.95866634252019
 30
0
 11
724.43368348610215
 21
339.171388305919
 31
0
  0
LINE
  5
33A
330
1F
100
AcDbEntity
  8
0
 62
2
100
AcDbLine
 10
724.43368348610215
 20
339.171388305919
 30
0
 11
721.43368348609306
 21
336.17138830592421
 31
0
  0
LINE
  5
33B
330
1F
100
AcDbEntity
  8
0
 62
2
100
AcDbLine
 10
721.43368348609306
 20
336.17138830592421
 30
0
 11
721.433683485965
 21
293.17138830592421
 31
0
  0
LINE
  5
33C
330
1F
100
AcDbEntity
  8
0
 62
2
100
AcDbLine
 10
721.433683485965
 20
293.17138830592421
 30
0
 11
753.433683485965
 21
293.17138830586828
 31
0
  0
LINE
  5
33D
330
1F
100
AcDbEntity
  8
0
 62
2
100
AcDbLine
 10
753.433683485965
 20
293.17138830586828
 30
0
 11
753.43368348609306
 21
336.17138830586828
 31
0
  0
LINE
  5
33E
330
1F
100
AcDbEntity
  8
0
 62
2
100
AcDbLine
 10
753.43368348609306
 20
336.17138830586828
 30
0
 11
750.43368348610227
 21
339.17138830587351
 31
0
  0
LINE
  5
33F
330
1F
100
AcDbEntity
  8
0
 62
2
100
AcDbLine
 10
750.43368348610227
 20
339.17138830587351
 30
0
 11
750.4336834862363
 21
384.95866634247471
 31
0
  0
ARC
  5
340
330
1F
100
AcDbEntity
  8
0
 62
2
100
AcDbCircle
 10
698.4336834835301
 20
384.95866633985895
 30
0
 40
52.0000000027066
100
AcDbArc
 50
2.8821579769952445E-09
 51
89.999999996918234
  0
LINE
  5
341
330
1F
100
AcDbEntity
  8
0
 62
2
100
AcDbLine
 10
698.433683486327
 20
436.95866634256555
 30
0
 11
584.297683486327
 21
436.95866634276473
 31
0
  0
ARC
  5
342
330
1F
100
AcDbEntity
  8
0
 62
2
100
AcDbCircle
 10
584.29768350418431
 20
462.95866640998656
 30
0
 40
26.0000000672217
100
AcDbArc
 50
242.655635558159
 51
269.99999996064804
  0
LINE
  5
343
330
1F
100
AcDbEntity
  8
0
 62
2
100
AcDbLine
 10
572.35490903993366
 20
439.86385873398314
 30
0
 11
508.18323240229131
 21
473.04828155079804
 31
0
  0
ARC
  5
344
330
1F
100
AcDbEntity
  8
0
 62
2
100
AcDbCircle
 10
484.29767637924465
 20
426.8586681132162
 30
0
 40
52.0000016927244
100
AcDbArc
 50
62.655627645633004
 51
89.999992169038549
  0
LINE
  5
345
330
1F
100
AcDbEntity
  8
0
 62
2
100
AcDbLine
 10
279.8615653290484
 20
489.15720408650662
 30
0
 11
509.81748309244847
 21
489.15720408650662
 31
0
  0
LINE
  5
346
330
1F
100
AcDbEntity
  8
0
 62
2
100
AcDbLine
 10
509.81748309244847
 20
489.15720408650662
 30
0
 11
512.81748309244847
 21
486.15720408650662
 31
0
  0
LINE
  5
347
330
1F
100
AcDbEntity
  8
0
 62
2
100
AcDbLine
 10
512.81748309244847
 20
486.15720408650662
 30
0
 11
555.81748309244847
 21
486.15720408650662
 31
0
  0
LINE
  5
348
330
1F
100
AcDbEntity
  8
0
 62
2
100
AcDbLine
 10
555.81748309244847
 20
486.15720408650662
 30
0
 11
555.81748309244847
 21
518.15720408650657
 31
0
  0
LINE
  5
349
330
1F
100
AcDbEntity
  8
0
 62
2
100
AcDbLine
 10
555.81748309244847
 20
518.15720408650657
 30
0
 11
512.81748309244847
 21
518.15720408650657
 31
0
  0
LINE
  5
34A
330
1F
100
AcDbEntity
  8
0
 62
2
100
AcDbLine
 10
512.81748309244847
 20
518.15720408650657
 30
0
 11
509.81748309244847
 21
515.15720408650657
 31
0
  0
LINE
  5
34B
330
1F
100
AcDbEntity
  8
0
 62
2
100
AcDbLine
 10
509.81748309244847
 20
515.15720408650657
 30
0
 11
279.8615653290484
 21
515.15720754950962
 31
0
  0
ARC
  5
34C
330
1F
100
AcDbEntity
  8
0
 62
2
100
AcDbCircle
 10
279.86156532307336
 20
541.157207523416
 30
0
 40
25.9999999739064
100
AcDbArc
 50
242.65563549479756
 51
270.0000000131671
  0
LINE
  5
34D
330
1F
100
AcDbEntity
  8
0
 62
2
100
AcDbLine
 10
267.91879087614632
 20
518.06239994350835
 30
0
 11
203.74711423953556
 21
551.24682275946907
 31
0
  0
ARC
  5
34E
330
1F
100
AcDbEntity
  8
0
 62
2
100
AcDbCircle
 10
179.86156532908308
 20
505.05720754968473
 30
0
 40
51.9999999998227
100
AcDbArc
 50
62.655635503842504
 51
90.000000000038085
  0
LINE
  5
34F
330
1F
100
AcDbEntity
  8
0
 62
2
100
AcDbLine
 10
179.86156532904852
 20
557.05720754950744
 30
0
 11
65.72556532904855
 21
557.05720754950755
 31
0
  0
ARC
  5
350
330
1F
100
AcDbEntity
  8
0
 62
2
100
AcDbCircle
 10
65.72556533025363
 20
583.0572075507132
 30
0
 40
26.0000000012057
100
AcDbArc
 50
180.00000000265686
 51
269.99999999734439
  0
LINE
  5
351
330
1F
100
AcDbEntity
  8
0
 62
2
100
AcDbLine
 10
39.72556532904855
 20
583.05720754950755
 30
0
 11
39.725565329102665
 21
628.8444855861087
 31
0
  0
LINE
  5
352
330
1F
100
AcDbEntity
  8
0
 62
2
100
AcDbLine
 10
39.725565329102665
 20
628.8444855861087
 30
0
 11
42.72556532910653
 21
631.8444855861087
 31
0
  0
LINE
  5
353
330
1F
100
AcDbEntity
  8
0
 62
2
100
AcDbLine
 10
42.72556532910653
 20
631.8444855861087
 30
0
 11
42.725565329159508
 21
674.8444855861087
 31
0
  0
LINE
  5
354
330
1F
100
AcDbEntity
  8
0
 62
2
100
AcDbLine
 10
42.725565329159508
 20
674.8444855861087
 30
0
 11
10.725565329159508
 21
674.8444855861087
 31
0
  0
LINE
  5
355
330
1F
100
AcDbEntity
  8
0
 62
2
100
AcDbLine
 10
10.725565329159508
 20
674.8444855861087
 30
0
 11
10.72556532910653
 21
631.8444855861087
 31
0
  0
LINE
  5
356
330
1F
100
AcDbEntity
  8
0
 62
2
100
AcDbLine
 10
10.72556532910653
 20
631.8444855861087
 30
0
 11
13.725565329102665
 21
628.8444855861087
 31
0
  0
LINE
  5
357
330
1F
100
AcDbEntity
  8
0
 62
2
100
AcDbLine
 10
13.725565329102665
 20
628.8444855861087
 30
0
 11
13.72556532904855
 21
583.05720754950755
 31
0
  0
ARC
  5
358
330
1F
100
AcDbEntity
  8
0
 62
2
100
AcDbCircle
 10
65.725565331754524
 20
583.05720755221409
 30
0
 40
52.0000000027066
100
AcDbArc
 50
180.00000000298218
 51
269.99999999701839
  0
LINE
  5
359
330
1F
100
AcDbEntity
  8
0
 62
2
100
AcDbLine
 10
65.72556532904855
 20
531.05720754950755
 30
0
 11
179.86156532904852
 21
531.05720754950755
 31
0
  0
ARC
  5
35A
330
1F
100
AcDbEntity
  8
0
 62
2
100
AcDbCircle
 10
179.86156531123652
 20
505.05720748228566
 30
0
 40
26.0000000672217
100
AcDbArc
 50
62.65563555825932
 51
89.999999960747985
  0
LINE
  5
35B
330
1F
100
AcDbEntity
  8
0
 62
2
100
AcDbLine
 10
191.80433977544669
 20
528.15201515831
 30
0
 11
255.97601641314702
 21
494.96759234160703
 31
0
  0
ARC
  5
35C
330
1F
100
AcDbEntity
  8
0
 62
2
100
AcDbCircle
 10
279.86157243611308
 20
541.15720577923059
 30
0
 40
52.0000016927244
100
AcDbArc
 50
242.655627645733
 51
269.99999216913852
  0
LINE
  5
35D
330
1F
100
AcDbEntity
  8
0
 62
2
100
AcDbLine
 10
452.89200986622348
 20
794.33844829230111
 30
0
 11
452.8920098666249
 21
1024.2943660557012
 31
0
  0
LINE
  5
35E
330
1F
100
AcDbEntity
  8
0
 62
2
100
AcDbLine
 10
452.8920098666249
 20
1024.2943660557012
 30
0
 11
455.89200986663013
 21
1027.2943660556959
 31
0
  0
LINE
  5
35F
330
1F
100
AcDbEntity
  8
0
 62
2
100
AcDbLine
 10
455.89200986663013
 20
1027.2943660556959
 30
0
 11
455.89200986670517
 21
1070.2943660556959
 31
0
  0
LINE
  5
360
330
1F
100
AcDbEntity
  8
0
 62
2
100
AcDbLine
 10
455.89200986670517
 20
1070.2943660556959
 30
0
 11
423.89200986670517
 21
1070.2943660557517
 31
0
  0
LINE
  5
361
330
1F
100
AcDbEntity
  8
0
 62
2
100
AcDbLine
 10
423.89200986670517
 20
1070.2943660557517
 30
0
 11
423.89200986663013
 21
1027.2943660557517
 31
0
  0
LINE
  5
362
330
1F
100
AcDbEntity
  8
0
 62
2
100
AcDbLine
 10
423.89200986663013
 20
1027.2943660557517
 30
0
 11
426.8920098666249
 21
1024.2943660557464
 31
0
  0
LINE
  5
363
330
1F
100
AcDbEntity
  8
0
 62
2
100
AcDbLine
 10
426.8920098666249
 20
1024.2943660557464
 30
0
 11
426.89200640322053
 21
794.33844829234647
 31
0
  0
ARC
  5
364
330
1F
100
AcDbEntity
  8
0
 62
2
100
AcDbCircle
 10
400.89200642931416
 20
794.33844828641679
 30
0
 40
25.9999999739064
100
AcDbArc
 50
332.65563549469761
 51
1.3067135704005937E-08
  0
LINE
  5
365
330
1F
100
AcDbEntity
  8
0
 62
2
100
AcDbLine
 10
423.98681400920088
 20
782.3956738394495
 30
0
 11
390.8023911931283
 21
718.22399720289673
 31
0
  0
ARC
  5
366
330
1F
100
AcDbEntity
  8
0
 62
2
100
AcDbCircle
 10
436.99200640287086
 20
694.33844829236341
 30
0
 40
51.9999999998227
100
AcDbArc
 50
152.65563550374225
 51
179.99999999993813
  0
LINE
  5
367
330
1F
100
AcDbEntity
  8
0
 62
2
100
AcDbLine
 10
384.99200640304821
 20
694.33844829241957
 30
0
 11
384.99200640284903
 21
580.2024482924196
 31
0
  0
ARC
  5
368
330
1F
100
AcDbEntity
  8
0
 62
2
100
AcDbCircle
 10
358.99200640164327
 20
580.20244829366993
 30
0
 40
26.0000000012057
100
AcDbArc
 50
270.00000000255716
 51
359.99999999724469
  0
LINE
  5
369
330
1F
100
AcDbEntity
  8
0
 62
2
100
AcDbLine
 10
358.99200640280367
 20
554.202448292465
 30
0
 11
313.2047283662024
 21
554.20244829259889
 31
0
  0
LINE
  5
36A
330
1F
100
AcDbEntity
  8
0
 62
2
100
AcDbLine
 10
313.2047283662024
 20
554.20244829259889
 30
0
 11
310.20472836620763
 21
557.2024482926081
 31
0
  0
LINE
  5
36B
330
1F
100
AcDbEntity
  8
0
 62
2
100
AcDbLine
 10
310.20472836620763
 20
557.2024482926081
 30
0
 11
267.20472836620763
 21
557.20244829273622
 31
0
  0
LINE
  5
36C
330
1F
100
AcDbEntity
  8
0
 62
2
100
AcDbLine
 10
267.20472836620763
 20
557.20244829273622
 30
0
 11
267.20472836615181
 21
525.20244829273622
 31
0
  0
LINE
  5
36D
330
1F
100
AcDbEntity
  8
0
 62
2
100
AcDbLine
 10
267.20472836615181
 20
525.20244829273622
 30
0
 11
310.20472836615181
 21
525.2024482926081
 31
0
  0
LINE
  5
36E
330
1F
100
AcDbEntity
  8
0
 62
2
100
AcDbLine
 10
310.20472836615181
 20
525.2024482926081
 30
0
 11
313.20472836615716
 21
528.20244829259889
 31
0
  0
LINE
  5
36F
330
1F
100
AcDbEntity
  8
0
 62
2
100
AcDbLine
 10
313.20472836615716
 20
528.20244829259889
 30
0
 11
358.99200640275831
 21
528.20244829246485
 31
0
  0
ARC
  5
370
330
1F
100
AcDbEntity
  8
0
 62
2
100
AcDbCircle
 10
358.99200640014237
 20
580.20244829517094
 30
0
 40
52.0000000027066
100
AcDbArc
 50
270.00000000288236
 51
359.99999999691846
  0
LINE
  5
371
330
1F
100
AcDbEntity
  8
0
 62
2
100
AcDbLine
 10
410.99200640284903
 20
580.20244829237424
 30
0
 11
410.99200640304821
 21
694.33844829237421
 31
0
  0
ARC
  5
372
330
1F
100
AcDbEntity
  8
0
 62
2
100
AcDbCircle
 10
436.99200647027
 20
694.33844827451685
 30
0
 40
26.0000000672217
100
AcDbArc
 50
152.65563555815928
 51
179.99999996064804
  0
LINE
  5
373
330
1F
100
AcDbEntity
  8
0
 62
2
100
AcDbLine
 10
413.8971987942665
 20
706.28122273876738
 30
0
 11
447.08162161108135
 21
770.45289937640985
 31
0
  0
ARC
  5
374
330
1F
100
AcDbEntity
  8
0
 62
2
100
AcDbCircle
 10
400.89200817349956
 20
794.33845539945651
 30
0
 40
52.0000016927244
100
AcDbArc
 50
332.655627645633
 51
359.99999216903853
  0
LINE
  5
375
330
1F
100
AcDbEntity
  8
0
 62
2
100
AcDbLine
 10
232.99290942297171
 20
958.15268719586788
 30
0
 11
237.00619356203572
 21
728.23179283255274
 31
0
  0
LINE
  5
376
330
1F
100
AcDbEntity
  8
0
 62
2
100
AcDbLine
 10
237.00619356203572
 20
728.23179283255274
 30
0
 11
234.05900769587311
 21
725.17989252777681
 31
0
  0
LINE
  5
377
330
1F
100
AcDbEntity
  8
0
 62
2
100
AcDbLine
 10
234.05900769587311
 20
725.17989252777681
 30
0
 11
234.80946117260123
 21
682.18644163605074
 31
0
  0
LINE
  5
378
330
1F
100
AcDbEntity
  8
0
 62
2
100
AcDbLine
 10
234.80946117260123
 20
682.18644163605074
 30
0
 11
266.80458741760674
 21
682.744918641988
 31
0
  0
LINE
  5
379
330
1F
100
AcDbEntity
  8
0
 62
2
100
AcDbLine
 10
266.80458741760674
 20
682.744918641988
 30
0
 11
266.0541339408785
 21
725.738369533714
 31
0
  0
LINE
  5
37A
330
1F
100
AcDbEntity
  8
0
 62
2
100
AcDbLine
 10
266.0541339408785
 20
725.738369533714
 30
0
 11
263.00223363610269
 21
728.68555539987676
 31
0
  0
LINE
  5
37B
330
1F
100
AcDbEntity
  8
0
 62
2
100
AcDbLine
 10
263.00223363610269
 20
728.68555539987676
 30
0
 11
258.98895295951411
 21
958.60644982362965
 31
0
  0
ARC
  5
37C
330
1F
100
AcDbEntity
  8
0
 62
2
100
AcDbCircle
 10
284.98499300738717
 20
959.06021239647225
 30
0
 40
25.9999999739064
100
AcDbArc
 50
153.65563549469724
 51
181.0000000130668
  0
LINE
  5
37D
330
1F
100
AcDbEntity
  8
0
 62
2
100
AcDbLine
 10
261.68527272491974
 20
970.59810793257031
 30
0
 11
293.74469121024219
 21
1035.3391589463215
 31
0
  0
ARC
  5
37E
330
1F
100
AcDbEntity
  8
0
 62
2
100
AcDbCircle
 10
247.14525059505627
 20
1058.4149500342412
 30
0
 40
51.9999999998227
100
AcDbArc
 50
333.65563550374236
 51
0.9999999999380339
  0
LINE
  5
37F
330
1F
100
AcDbEntity
  8
0
 62
2
100
AcDbLine
 10
299.13733074301228
 20
1059.3224751689206
 30
0
 11
297.14538288208564
 21
1173.441091703294
 31
0
  0
ARC
  5
380
330
1F
100
AcDbEntity
  8
0
 62
2
100
AcDbCircle
 10
323.14142295737918
 20
1173.8948542694343
 30
0
 40
26.0000000012057
100
AcDbArc
 50
91.000000002557073
 51
180.99999999724474
  0
LINE
  5
381
330
1F
100
AcDbEntity
  8
0
 62
2
100
AcDbLine
 10
322.68766038882859
 20
1199.890894344685
 30
0
 11
368.46796480121156
 21
1200.6899925305026
 31
0
  0
LINE
  5
382
330
1F
100
AcDbEntity
  8
0
 62
2
100
AcDbLine
 10
368.46796480121156
 20
1200.6899925305026
 30
0
 11
371.51986510598749
 21
1197.7428066643361
 31
0
  0
LINE
  5
383
330
1F
100
AcDbEntity
  8
0
 62
2
100
AcDbLine
 10
371.51986510598749
 20
1197.7428066643361
 30
0
 11
414.51331599771447
 21
1198.4932601410114
 31
0
  0
LINE
  5
384
330
1F
100
AcDbEntity
  8
0
 62
2
100
AcDbLine
 10
414.51331599771447
 20
1198.4932601410114
 30
0
 11
413.95483899177725
 21
1230.4883863860168
 31
0
  0
LINE
  5
385
330
1F
100
AcDbEntity
  8
0
 62
2
100
AcDbLine
 10
413.95483899177725
 20
1230.4883863860168
 30
0
 11
370.96138810005027
 21
1229.7379329093417
 31
0
  0
LINE
  5
386
330
1F
100
AcDbEntity
  8
0
 62
2
100
AcDbLine
 10
370.96138810005027
 20
1229.7379329093417
 30
0
 11
368.01420223388754
 21
1226.6860326045698
 31
0
  0
LINE
  5
387
330
1F
100
AcDbEntity
  8
0
 62
2
100
AcDbLine
 10
368.01420223388754
 20
1226.6860326045698
 30
0
 11
322.23389782150457
 21
1225.8869344187522
 31
0
  0
ARC
  5
388
330
1F
100
AcDbEntity
  8
0
 62
2
100
AcDbCircle
 10
323.141422958906
 20
1173.8948542679598
 30
0
 40
52.0000000027066
100
AcDbArc
 50
91.00000000288226
 51
180.9999999969186
  0
LINE
  5
389
330
1F
100
AcDbEntity
  8
0
 62
2
100
AcDbLine
 10
271.14934280801867
 20
1172.98732913597
 30
0
 11
273.14129066894532
 21
1058.8687126015966
 31
0
  0
ARC
  5
38A
330
1F
100
AcDbEntity
  8
0
 62
2
100
AcDbCircle
 10
247.14525052735587
 20
1058.4149500509088
 30
0
 40
26.0000000672217
100
AcDbArc
 50
333.65563555815925
 51
0.99999996064770735
  0
LINE
  5
38B
330
1F
100
AcDbEntity
  8
0
 62
2
100
AcDbLine
 10
270.444970906227
 20
1046.8770544992078
 30
0
 11
238.38555242018151
 21
982.13600348435409
 31
0
  0
ARC
  5
38C
330
1F
100
AcDbEntity
  8
0
 62
2
100
AcDbCircle
 10
284.98499138760712
 20
959.06020525407564
 30
0
 40
52.0000016927244
100
AcDbArc
 50
153.65562764563293
 51
180.99999216903836
  0
LINE
  5
38D
330
1F
100
AcDbEntity
  8
0
 62
2
100
AcDbLine
 10
269.4821510967148
 20
918.12024993737839
 30
0
 11
277.50749689001805
 21
688.3044151058649
 31
0
  0
LINE
  5
38E
330
1F
100
AcDbEntity
  8
0
 62
2
100
AcDbLine
 10
277.50749689001805
 20
688.3044151058649
 30
0
 11
274.61402289906289
 21
685.20154413470516
 31
0
  0
LINE
  5
38F
330
1F
100
AcDbEntity
  8
0
 62
2
100
AcDbLine
 10
274.61402289906289
 20
685.20154413470516
 30
0
 11
276.11470125719541
 21
642.22773857288132
 31
0
  0
LINE
  5
390
330
1F
100
AcDbEntity
  8
0
 62
2
100
AcDbLine
 10
276.11470125719541
 20
642.22773857288132
 30
0
 11
308.09520772180838
 21
643.34452246730552
 31
0
  0
LINE
  5
391
330
1F
100
AcDbEntity
  8
0
 62
2
100
AcDbLine
 10
308.09520772180838
 20
643.34452246730552
 30
0
 11
306.59452936367586
 21
686.31832802912925
 31
0
  0
LINE
  5
392
330
1F
100
AcDbEntity
  8
0
 62
2
100
AcDbLine
 10
306.59452936367586
 20
686.31832802912925
 30
0
 11
303.49165839251611
 21
689.21180202008441
 31
0
  0
LINE
  5
393
330
1F
100
AcDbEntity
  8
0
 62
2
100
AcDbLine
 10
303.49165839251611
 20
689.21180202008441
 30
0
 11
295.46631606010624
 21
919.027636972455
 31
0
  0
ARC
  5
394
330
1F
100
AcDbEntity
  8
0
 62
2
100
AcDbCircle
 10
321.45047753631809
 20
919.93502389173545
 30
0
 40
25.9999999739064
100
AcDbArc
 50
154.65563549469758
 51
182.00000001306725
  0
LINE
  5
395
330
1F
100
AcDbEntity
  8
0
 62
2
100
AcDbLine
 10
297.95294187177763
 20
931.06452596221345
 30
0
 11
328.87759041691254
 21
996.35523060186392
 31
0
  0
ARC
  5
396
330
1F
100
AcDbEntity
  8
0
 62
2
100
AcDbCircle
 10
281.8825190373135
 20
1018.6142347576646
 30
0
 40
51.9999999998227
100
AcDbArc
 50
334.65563550374236
 51
1.9999999999381501
  0
LINE
  5
397
330
1F
100
AcDbEntity
  8
0
 62
2
100
AcDbLine
 10
333.85084204213126
 20
1020.4290085861323
 30
0
 11
329.86755308669365
 21
1134.4954800187907
 31
0
  0
ARC
  5
398
330
1F
100
AcDbEntity
  8
0
 62
2
100
AcDbCircle
 10
355.85171459043875
 20
1135.4028669318482
 30
0
 40
26.0000000012057
100
AcDbArc
 50
92.000000002556874
 51
181.9999999972446
  0
LINE
  5
399
330
1F
100
AcDbEntity
  8
0
 62
2
100
AcDbLine
 10
354.9443276749721
 20
1161.3870284355085
 30
0
 11
400.70371333892888
 21
1162.9849813942294
 31
0
  0
LINE
  5
39A
330
1F
100
AcDbEntity
  8
0
 62
2
100
AcDbLine
 10
400.70371333892888
 20
1162.9849813942294
 30
0
 11
403.80658431008874
 21
1160.0915074032703
 31
0
  0
LINE
  5
39B
330
1F
100
AcDbEntity
  8
0
 62
2
100
AcDbLine
 10
403.80658431008874
 20
1160.0915074032703
 30
0
 11
446.78038987191428
 21
1161.5921857613498
 31
0
  0
LINE
  5
39C
330
1F
100
AcDbEntity
  8
0
 62
2
100
AcDbLine
 10
446.78038987191428
 20
1161.5921857613498
 30
0
 11
445.66360597749008
 21
1193.572692225963
 31
0
  0
LINE
  5
39D
330
1F
100
AcDbEntity
  8
0
 62
2
100
AcDbLine
 10
445.66360597749008
 20
1193.572692225963
 30
0
 11
402.68980041566454
 21
1192.0720138678832
 31
0
  0
LINE
  5
39E
330
1F
100
AcDbEntity
  8
0
 62
2
100
AcDbLine
 10
402.68980041566454
 20
1192.0720138678832
 30
0
 11
399.79632642470915
 21
1188.9691428967276
 31
0
  0
LINE
  5
39F
330
1F
100
AcDbEntity
  8
0
 62
2
100
AcDbLine
 10
399.79632642470915
 20
1188.9691428967276
 30
0
 11
354.03694076075237
 21
1187.3711899380066
 31
0
  0
ARC
  5
3A0
330
1F
100
AcDbEntity
  8
0
 62
2
100
AcDbCircle
 10
355.85171459199114
 20
1135.4028669304005
 30
0
 40
52.0000000027066
100
AcDbArc
 50
92.000000002882274
 51
181.99999999691838
  0
LINE
  5
3A1
330
1F
100
AcDbEntity
  8
0
 62
2
100
AcDbLine
 10
303.88339158419558
 20
1133.588093104571
 30
0
 11
307.86668053963319
 21
1019.5216216719126
 31
0
  0
ARC
  5
3A2
330
1F
100
AcDbEntity
  8
0
 62
2
100
AcDbCircle
 10
281.88251896933264
 20
1018.6142347731482
 30
0
 40
26.0000000672217
100
AcDbArc
 50
334.65563555815885
 51
1.9999999606478192
  0
LINE
  5
3A3
330
1F
100
AcDbEntity
  8
0
 62
2
100
AcDbLine
 10
305.38005473053443
 20
1007.4847326887517
 30
0
 11
274.45540618469579
 21
942.19402804798654
 31
0
  0
ARC
  5
3A4
330
1F
100
AcDbEntity
  8
0
 62
2
100
AcDbCircle
 10
321.45047604143667
 20
919.93501672215757
 30
0
 40
52.0000016927244
100
AcDbArc
 50
154.65562764563288
 51
181.99999216903836
  0
LINE
  5
3A5
330
1F
100
AcDbEntity
  8
0
 62
2
100
AcDbLine
 10
380.61774519248013
 20
875.03405070073563
 30
0
 11
372.59239939877591
 21
1104.849885532235
 31
0
  0
LINE
  5
3A6
330
1F
100
AcDbEntity
  8
0
 62
2
100
AcDbLine
 10
372.59239939877591
 20
1104.849885532235
 30
0
 11
375.48587338972573
 21
1107.9527565034
 31
0
  0
LINE
  5
3A7
330
1F
100
AcDbEntity
  8
0
 62
2
100
AcDbLine
 10
375.48587338972573
 20
1107.9527565034
 30
0
 11
373.98519503151817
 21
1150.9265620652211
 31
0
  0
LINE
  5
3A8
330
1F
100
AcDbEntity
  8
0
 62
2
100
AcDbLine
 10
373.98519503151817
 20
1150.9265620652211
 30
0
 11
342.00468856690713
 21
1149.8097781707411
 31
0
  0
LINE
  5
3A9
330
1F
100
AcDbEntity
  8
0
 62
2
100
AcDbLine
 10
342.00468856690713
 20
1149.8097781707411
 30
0
 11
343.50536692511457
 21
1106.83597260892
 31
0
  0
LINE
  5
3AA
330
1F
100
AcDbEntity
  8
0
 62
2
100
AcDbLine
 10
343.50536692511457
 20
1106.83597260892
 30
0
 11
346.60823789627943
 21
1103.9424986179702
 31
0
  0
LINE
  5
3AB
330
1F
100
AcDbEntity
  8
0
 62
2
100
AcDbLine
 10
346.60823789627943
 20
1103.9424986179702
 30
0
 11
354.63358022909028
 21
874.12666366561359
 31
0
  0
ARC
  5
3AC
330
1F
100
AcDbEntity
  8
0
 62
2
100
AcDbCircle
 10
328.64941875288
 20
873.21927674628773
 30
0
 40
25.9999999739064
100
AcDbArc
 50
334.65563549479754
 51
2.00000001316729
  0
LINE
  5
3AD
330
1F
100
AcDbEntity
  8
0
 62
2
100
AcDbLine
 10
352.14695441744004
 20
862.08977467585066
 30
0
 11
321.22230587241904
 21
796.7990700361463
 31
0
  0
ARC
  5
3AE
330
1F
100
AcDbEntity
  8
0
 62
2
100
AcDbCircle
 10
368.21737725205696
 20
774.54006588042773
 30
0
 40
51.9999999998227
100
AcDbArc
 50
154.65563550384243
 51
182.00000000003817
  0
LINE
  5
3AF
330
1F
100
AcDbEntity
  8
0
 62
2
100
AcDbLine
 10
316.24905424724238
 20
772.72529205186925
 30
0
 11
320.23234320287906
 21
658.65882061921775
 31
0
  0
ARC
  5
3B0
330
1F
100
AcDbEntity
  8
0
 62
2
100
AcDbCircle
 10
294.24818169913544
 20
657.75143370611488
 30
0
 40
26.0000000012057
100
AcDbArc
 50
272.00000000265715
 51
1.9999999973446205
  0
LINE
  5
3B1
330
1F
100
AcDbEntity
  8
0
 62
2
100
AcDbLine
 10
295.15556861464756
 20
631.7672722024563
 30
0
 11
249.39618295069351
 21
630.16931924365554
 31
0
  0
LINE
  5
3B2
330
1F
100
AcDbEntity
  8
0
 62
2
100
AcDbLine
 10
249.39618295069351
 20
630.16931924365554
 30
0
 11
246.29331197952865
 21
633.06279323460933
 31
0
  0
LINE
  5
3B3
330
1F
100
AcDbEntity
  8
0
 62
2
100
AcDbLine
 10
246.29331197952865
 20
633.06279323460933
 30
0
 11
203.31950641770561
 21
631.56211487645464
 31
0
  0
LINE
  5
3B4
330
1F
100
AcDbEntity
  8
0
 62
2
100
AcDbLine
 10
203.31950641770561
 20
631.56211487645464
 30
0
 11
204.43629031218563
 21
599.5816084118436
 31
0
  0
LINE
  5
3B5
330
1F
100
AcDbEntity
  8
0
 62
2
100
AcDbLine
 10
204.43629031218563
 20
599.5816084118436
 30
0
 11
247.41009587400868
 21
601.08228676999818
 31
0
  0
LINE
  5
3B6
330
1F
100
AcDbEntity
  8
0
 62
2
100
AcDbLine
 10
247.41009587400868
 20
601.08228676999818
 30
0
 11
250.3035698649586
 21
604.18515774115906
 31
0
  0
LINE
  5
3B7
330
1F
100
AcDbEntity
  8
0
 62
2
100
AcDbLine
 10
250.3035698649586
 20
604.18515774115906
 30
0
 11
296.06295552891254
 21
605.78311069995971
 31
0
  0
ARC
  5
3B8
330
1F
100
AcDbEntity
  8
0
 62
2
100
AcDbCircle
 10
294.24818169758316
 20
657.75143370756268
 30
0
 40
52.0000000027066
100
AcDbArc
 50
272.00000000298218
 51
1.9999999970184132
  0
LINE
  5
3B9
330
1F
100
AcDbEntity
  8
0
 62
2
100
AcDbLine
 10
346.21650470537554
 20
659.56620753348284
 30
0
 11
342.23321574973886
 21
773.63267896613434
 31
0
  0
ARC
  5
3BA
330
1F
100
AcDbEntity
  8
0
 62
2
100
AcDbCircle
 10
368.21737732003783
 20
774.54006586494415
 30
0
 40
26.0000000672217
100
AcDbArc
 50
154.65563555825904
 51
181.99999996074783
  0
LINE
  5
3BB
330
1F
100
AcDbEntity
  8
0
 62
2
100
AcDbLine
 10
344.71984155881648
 20
785.66956794929956
 30
0
 11
375.64449010454121
 21
850.96027259011873
 31
0
  0
ARC
  5
3BC
330
1F
100
AcDbEntity
  8
0
 62
2
100
AcDbCircle
 10
328.64942024776144
 20
873.21928391586562
 30
0
 40
52.0000016927244
100
AcDbArc
 50
334.65562764573292
 51
1.9999921691385096
  0
LINE
  5
3BD
330
1F
100
AcDbEntity
  8
0
 62
2
100
AcDbLine
 10
417.10698686622345
 20
835.00161344224625
 30
0
 11
413.09370272675812
 21
1064.9225078055545
 31
0
  0
LINE
  5
3BE
330
1F
100
AcDbEntity
  8
0
 62
2
100
AcDbLine
 10
413.09370272675812
 20
1064.9225078055545
 30
0
 11
416.04088859291551
 21
1067.9744081103354
 31
0
  0
LINE
  5
3BF
330
1F
100
AcDbEntity
  8
0
 62
2
100
AcDbLine
 10
416.04088859291551
 20
1067.9744081103354
 30
0
 11
415.29043511611223
 21
1110.9678590020603
 31
0
  0
LINE
  5
3C0
330
1F
100
AcDbEntity
  8
0
 62
2
100
AcDbLine
 10
415.29043511611223
 20
1110.9678590020603
 30
0
 11
383.29530887110775
 21
1110.4093819960672
 31
0
  0
LINE
  5
3C1
330
1F
100
AcDbEntity
  8
0
 62
2
100
AcDbLine
 10
383.29530887110775
 20
1110.4093819960672
 30
0
 11
384.04576234791091
 21
1067.4159311043422
 31
0
  0
LINE
  5
3C2
330
1F
100
AcDbEntity
  8
0
 62
2
100
AcDbLine
 10
384.04576234791091
 20
1067.4159311043422
 30
0
 11
387.09766265269195
 21
1064.468745238185
 31
0
  0
LINE
  5
3C3
330
1F
100
AcDbEntity
  8
0
 62
2
100
AcDbLine
 10
387.09766265269195
 20
1064.468745238185
 30
0
 11
391.11094332968185
 21
834.54785081443913
 31
0
  0
ARC
  5
3C4
330
1F
100
AcDbEntity
  8
0
 62
2
100
AcDbCircle
 10
365.11490328180957
 20
834.09408824155093
 30
0
 40
25.9999999739064
100
AcDbArc
 50
333.65563549479776
 51
1.0000000131672966
  0
LINE
  5
3C5
330
1F
100
AcDbEntity
  8
0
 62
2
100
AcDbLine
 10
388.41462356429713
 20
822.5561927054938
 30
0
 11
356.35520507908768
 21
757.81514169168656
 31
0
  0
ARC
  5
3C6
330
1F
100
AcDbEntity
  8
0
 62
2
100
AcDbCircle
 10
402.95464569431397
 20
734.73935060384815
 30
0
 40
51.9999999998227
100
AcDbArc
 50
153.65563550384238
 51
181.00000000003814
  0
LINE
  5
3C7
330
1F
100
AcDbEntity
  8
0
 62
2
100
AcDbLine
 10
350.96256554635954
 20
733.8318254690779
 30
0
 11
352.95451340748525
 21
619.71320893470806
 31
0
  0
ARC
  5
3C8
330
1F
100
AcDbEntity
  8
0
 62
2
100
AcDbCircle
 10
326.95847333219251
 20
619.25944636852239
 30
0
 40
26.0000000012057
100
AcDbArc
 50
271.00000000265703
 51
0.99999999734472866
  0
LINE
  5
3C9
330
1F
100
AcDbEntity
  8
0
 62
2
100
AcDbLine
 10
327.41223590078846
 20
593.26340629327251
 30
0
 11
281.63193148840696
 21
592.4643081073749
 31
0
  0
LINE
  5
3CA
330
1F
100
AcDbEntity
  8
0
 62
2
100
AcDbLine
 10
281.63193148840696
 20
592.4643081073749
 30
0
 11
278.58003118362592
 21
595.41149397353627
 31
0
  0
LINE
  5
3CB
330
1F
100
AcDbEntity
  8
0
 62
2
100
AcDbLine
 10
278.58003118362592
 20
595.41149397353627
 30
0
 11
235.58658029190019
 21
594.661040496786
 31
0
  0
LINE
  5
3CC
330
1F
100
AcDbEntity
  8
0
 62
2
100
AcDbLine
 10
235.58658029190019
 20
594.661040496786
 30
0
 11
236.14505729789323
 21
562.66591425178137
 31
0
  0
LINE
  5
3CD
330
1F
100
AcDbEntity
  8
0
 62
2
100
AcDbLine
 10
236.14505729789323
 20
562.66591425178137
 30
0
 11
279.13850818961896
 21
563.41636772853167
 31
0
  0
LINE
  5
3CE
330
1F
100
AcDbEntity
  8
0
 62
2
100
AcDbLine
 10
279.13850818961896
 20
563.41636772853167
 30
0
 11
282.08569405577634
 21
566.46826803330862
 31
0
  0
LINE
  5
3CF
330
1F
100
AcDbEntity
  8
0
 62
2
100
AcDbLine
 10
282.08569405577634
 20
566.46826803330862
 30
0
 11
327.86599846815784
 21
567.26736621920622
 31
0
  0
ARC
  5
3D0
330
1F
100
AcDbEntity
  8
0
 62
2
100
AcDbCircle
 10
326.9584733306657
 20
619.259446369997
 30
0
 40
52.0000000027066
100
AcDbArc
 50
271.00000000298223
 51
0.99999999701845088
  0
LINE
  5
3D1
330
1F
100
AcDbEntity
  8
0
 62
2
100
AcDbLine
 10
378.95055348155142
 20
620.16697150207744
 30
0
 11
376.9586056204256
 21
734.28558803644728
 31
0
  0
ARC
  5
3D2
330
1F
100
AcDbEntity
  8
0
 62
2
100
AcDbCircle
 10
402.95464576201425
 20
734.73935058718052
 30
0
 40
26.0000000672217
100
AcDbArc
 50
153.65563555825906
 51
180.99999996074791
  0
LINE
  5
3D3
330
1F
100
AcDbEntity
  8
0
 62
2
100
AcDbLine
 10
379.654925383123
 20
746.277246138841
 30
0
 11
411.71434386905548
 21
811.01829715375061
 31
0
  0
ARC
  5
3D4
330
1F
100
AcDbEntity
  8
0
 62
2
100
AcDbCircle
 10
365.11490490158963
 20
834.09409538394766
 30
0
 40
52.0000016927244
100
AcDbArc
 50
333.655627645733
 51
0.99999216913848876
  0
LINE
  5
3D5
330
1F
100
AcDbEntity
  8
0
 62
2
100
AcDbLine
 10
8.0000000995180471
 20
965.86400010000011
 30
0
 11
8.0000000995180471
 21
735.90808233660016
 31
0
  0
LINE
  5
3D6
330
1F
100
AcDbEntity
  8
0
 62
2
100
AcDbLine
 10
8.0000000995180471
 20
735.90808233660016
 30
0
 11
5.0000000995180471
 21
732.90808233660016
 31
0
  0
LINE
  5
3D7
330
1F
100
AcDbEntity
  8
0
 62
2
100
AcDbLine
 10
5.0000000995180471
 20
732.90808233660016
 30
0
 11
5.0000000995180471
 21
689.90808233660016
 31
0
  0
LINE
  5
3D8
330
1F
100
AcDbEntity
  8
0
 62
2
100
AcDbLine
 10
5.0000000995180471
 20
689.90808233660016
 30
0
 11
37.000000099518047
 21
689.90808233660016
 31
0
  0
LINE
  5
3D9
330
1F
100
AcDbEntity
  8
0
 62
2
100
AcDbLine
 10
37.000000099518047
 20
689.90808233660016
 30
0
 11
37.000000099518047
 21
732.90808233660016
 31
0
  0
LINE
  5
3DA
330
1F
100
AcDbEntity
  8
0
 62
2
100
AcDbLine
 10
37.000000099518047
 20
732.90808233660016
 30
0
 11
34.000000099518047
 21
735.90808233660016
 31
0
  0
LINE
  5
3DB
330
1F
100
AcDbEntity
  8
0
 62
2
100
AcDbLine
 10
34.000000099518047
 20
735.90808233660016
 30
0
 11
34.000003562520988
 21
965.86400010000011
 31
0
  0
ARC
  5
3DC
330
1F
100
AcDbEntity
  8
0
 62
2
100
AcDbCircle
 10
60.000003536427357
 20
965.86400010597515
 30
0
 40
25.9999999739064
100
AcDbArc
 50
152.65563549479756
 51
180.0000000131671
  0
LINE
  5
3DD
330
1F
100
AcDbEntity
  8
0
 62
2
100
AcDbLine
 10
36.905195956519719
 20
977.8067745529022
 30
0
 11
70.089618772480435
 21
1041.9784511895127
 31
0
  0
ARC
  5
3DE
330
1F
100
AcDbEntity
  8
0
 62
2
100
AcDbCircle
 10
23.900003562696156
 20
1065.8640000999653
 30
0
 40
51.9999999998227
100
AcDbArc
 50
332.65563550384235
 51
3.8080536543240145E-11
  0
LINE
  5
3DF
330
1F
100
AcDbEntity
  8
0
 62
2
100
AcDbLine
 10
75.9000035625188
 20
1065.8640000999999
 30
0
 11
75.9000035625188
 21
1180.0000000999999
 31
0
  0
ARC
  5
3E0
330
1F
100
AcDbEntity
  8
0
 62
2
100
AcDbCircle
 10
101.90000356372457
 20
1180.000000098795
 30
0
 40
26.0000000012057
100
AcDbArc
 50
90.000000002657117
 51
179.9999999973449
  0
LINE
  5
3E1
330
1F
100
AcDbEntity
  8
0
 62
2
100
AcDbLine
 10
101.9000035625188
 20
1206.0000000999999
 30
0
 11
147.68728159912007
 21
1206.000000099946
 31
0
  0
LINE
  5
3E2
330
1F
100
AcDbEntity
  8
0
 62
2
100
AcDbLine
 10
147.68728159912007
 20
1206.000000099946
 30
0
 11
150.68728159912007
 21
1203.0000000999421
 31
0
  0
LINE
  5
3E3
330
1F
100
AcDbEntity
  8
0
 62
2
100
AcDbLine
 10
150.68728159912007
 20
1203.0000000999421
 30
0
 11
193.68728159912007
 21
1203.0000000998889
 31
0
  0
LINE
  5
3E4
330
1F
100
AcDbEntity
  8
0
 62
2
100
AcDbLine
 10
193.68728159912007
 20
1203.0000000998889
 30
0
 11
193.68728159912007
 21
1235.0000000998889
 31
0
  0
LINE
  5
3E5
330
1F
100
AcDbEntity
  8
0
 62
2
100
AcDbLine
 10
193.68728159912007
 20
1235.0000000998889
 30
0
 11
150.68728159912007
 21
1235.0000000999421
 31
0
  0
LINE
  5
3E6
330
1F
100
AcDbEntity
  8
0
 62
2
100
AcDbLine
 10
150.68728159912007
 20
1235.0000000999421
 30
0
 11
147.68728159912007
 21
1232.000000099946
 31
0
  0
LINE
  5
3E7
330
1F
100
AcDbEntity
  8
0
 62
2
100
AcDbLine
 10
147.68728159912007
 20
1232.000000099946
 30
0
 11
101.9000035625188
 21
1232.0000001
 31
0
  0
ARC
  5
3E8
330
1F
100
AcDbEntity
  8
0
 62
2
100
AcDbCircle
 10
101.90000356522546
 20
1180.0000000972941
 30
0
 40
52.0000000027066
100
AcDbArc
 50
90.000000002982318
 51
179.9999999970187
  0
LINE
  5
3E9
330
1F
100
AcDbEntity
  8
0
 62
2
100
AcDbLine
 10
49.900003562518805
 20
1180.0000000999999
 30
0
 11
49.900003562518805
 21
1065.8640000999999
 31
0
  0
ARC
  5
3EA
330
1F
100
AcDbEntity
  8
0
 62
2
100
AcDbCircle
 10
23.900003495297142
 20
1065.8640001178119
 30
0
 40
26.0000000672217
100
AcDbArc
 50
332.655635558259
 51
359.99999996074797
  0
LINE
  5
3EB
330
1F
100
AcDbEntity
  8
0
 62
2
100
AcDbLine
 10
46.994811171321317
 20
1053.9212256536016
 30
0
 11
13.810388354618453
 21
989.74954901590149
 31
0
  0
ARC
  5
3EC
330
1F
100
AcDbEntity
  8
0
 62
2
100
AcDbCircle
 10
60.000001792242074
 20
965.86399299293544
 30
0
 40
52.0000016927244
100
AcDbArc
 50
152.65562764573303
 51
179.99999216913849
  0
LINE
  5
3ED
330
1F
100
AcDbEntity
  8
0
 62
2
100
AcDbLine
 10
220.26827888604532
 20
848.62985914812646
 30
0
 11
200.22630007415705
 21
1077.7107252188468
 31
0
  0
LINE
  5
3EE
330
1F
100
AcDbEntity
  8
0
 62
2
100
AcDbLine
 10
200.22630007415705
 20
1077.7107252188468
 30
0
 11
202.9534169401893
 21
1080.960776541365
 31
0
  0
LINE
  5
3EF
330
1F
100
AcDbEntity
  8
0
 62
2
100
AcDbLine
 10
202.9534169401893
 20
1080.960776541365
 30
0
 11
199.20572000204004
 21
1123.7971485593102
 31
0
  0
LINE
  5
3F0
330
1F
100
AcDbEntity
  8
0
 62
2
100
AcDbLine
 10
199.20572000204004
 20
1123.7971485593102
 30
0
 11
167.32748966310419
 21
1121.0081647913851
 31
0
  0
LINE
  5
3F1
330
1F
100
AcDbEntity
  8
0
 62
2
100
AcDbLine
 10
167.32748966310419
 20
1121.0081647913851
 30
0
 11
171.07518660125356
 21
1078.17179277344
 31
0
  0
LINE
  5
3F2
330
1F
100
AcDbEntity
  8
0
 62
2
100
AcDbLine
 10
171.07518660125356
 20
1078.17179277344
 30
0
 11
174.32523792377174
 21
1075.4446759074078
 31
0
  0
LINE
  5
3F3
330
1F
100
AcDbEntity
  8
0
 62
2
100
AcDbLine
 10
174.32523792377174
 20
1075.4446759074078
 30
0
 11
194.36721328583485
 21
846.36380953486673
 31
0
  0
ARC
  5
3F4
330
1F
100
AcDbEntity
  8
0
 62
2
100
AcDbCircle
 10
168.46615116196449
 20
844.09776021974949
 30
0
 40
25.9999999739064
100
AcDbArc
 50
337.65563549479771
 51
5.0000000131671669
  0
LINE
  5
3F5
330
1F
100
AcDbEntity
  8
0
 62
2
100
AcDbLine
 10
192.51395740390717
 20
834.21327674345639
 30
0
 11
165.04874147603869
 21
767.39357969222954
 31
0
  0
ARC
  5
3F6
330
1F
100
AcDbEntity
  8
0
 62
2
100
AcDbCircle
 10
213.14435401114963
 20
747.62461272746282
 30
0
 40
51.9999999998227
100
AcDbArc
 50
157.65563550384232
 51
185.00000000003817
  0
LINE
  5
3F7
330
1F
100
AcDbEntity
  8
0
 62
2
100
AcDbLine
 10
161.34222971055874
 20
743.09251410456557
 30
0
 11
171.28983756480534
 21
629.39083604316613
 31
0
  0
ARC
  5
3F8
330
1F
100
AcDbEntity
  8
0
 62
2
100
AcDbCircle
 10
145.38877541311376
 20
627.12478673282237
 30
0
 40
26.0000000012057
100
AcDbArc
 50
275.000000002657
 51
4.9999999973445028
  0
LINE
  5
3F9
330
1F
100
AcDbEntity
  8
0
 62
2
100
AcDbLine
 10
147.65482472585904
 20
601.22372458134157
 30
0
 11
102.04178110573957
 21
597.233100355722
 31
0
  0
LINE
  5
3FA
330
1F
100
AcDbEntity
  8
0
 62
2
100
AcDbLine
 10
102.04178110573957
 20
597.233100355722
 30
0
 11
98.791729783220944
 21
599.96021722175817
 31
0
  0
LINE
  5
3FB
330
1F
100
AcDbEntity
  8
0
 62
2
100
AcDbLine
 10
98.791729783220944
 20
599.96021722175817
 30
0
 11
55.9553577652714
 21
596.21252028366166
 31
0
  0
LINE
  5
3FC
330
1F
100
AcDbEntity
  8
0
 62
2
100
AcDbLine
 10
55.9553577652714
 20
596.21252028366166
 30
0
 11
58.744341533196348
 21
564.33428994472581
 31
0
  0
LINE
  5
3FD
330
1F
100
AcDbEntity
  8
0
 62
2
100
AcDbLine
 10
58.744341533196348
 20
564.33428994472581
 30
0
 11
101.58071355114612
 21
568.08198688282232
 31
0
  0
LINE
  5
3FE
330
1F
100
AcDbEntity
  8
0
 62
2
100
AcDbLine
 10
101.58071355114612
 20
568.08198688282232
 30
0
 11
104.30783041717859
 21
571.33203820533652
 31
0
  0
LINE
  5
3FF
330
1F
100
AcDbEntity
  8
0
 62
2
100
AcDbLine
 10
104.30783041717859
 20
571.33203820533652
 30
0
 11
149.92087403729806
 21
575.32266243095614
 31
0
  0
ARC
  5
400
330
1F
100
AcDbEntity
  8
0
 62
2
100
AcDbCircle
 10
145.38877541148781
 20
627.12478673418684
 30
0
 40
52.0000000027066
100
AcDbArc
 50
275.00000000298206
 51
4.9999999970183158
  0
LINE
  5
401
330
1F
100
AcDbEntity
  8
0
 62
2
100
AcDbLine
 10
197.19089971519054
 20
631.65688535460515
 30
0
 11
187.24329186094394
 21
745.35856341600459
 31
0
  0
ARC
  5
402
330
1F
100
AcDbEntity
  8
0
 62
2
100
AcDbCircle
 10
213.14435407984774
 20
747.62461271555833
 30
0
 40
26.0000000672217
100
AcDbArc
 50
157.65563555825921
 51
184.99999996074817
  0
LINE
  5
403
330
1F
100
AcDbEntity
  8
0
 62
2
100
AcDbLine
 10
189.09654774064779
 20
757.50909620069183
 30
0
 11
216.56176366916065
 21
824.328793253069
 31
0
  0
ARC
  5
404
330
1F
100
AcDbEntity
  8
0
 62
2
100
AcDbCircle
 10
168.46615227957068
 20
844.09776745773786
 30
0
 40
52.0000016927244
100
AcDbArc
 50
337.65562764573286
 51
4.9999921691384355
  0
LINE
  5
405
330
1F
100
AcDbEntity
  8
0
 62
2
100
AcDbLine
 10
56.252427099517945
 20
916.80720166634387
 30
0
 11
73.39702359446278
 21
687.491290911261
 31
0
  0
LINE
  5
406
330
1F
100
AcDbEntity
  8
0
 62
2
100
AcDbLine
 10
73.39702359446278
 20
687.491290911261
 30
0
 11
70.629041152561513
 21
684.27597238873091
 31
0
  0
LINE
  5
407
330
1F
100
AcDbEntity
  8
0
 62
2
100
AcDbLine
 10
70.629041152561513
 20
684.27597238873091
 30
0
 11
73.834949730400922
 21
641.39564881030458
 31
0
  0
LINE
  5
408
330
1F
100
AcDbEntity
  8
0
 62
2
100
AcDbLine
 10
73.834949730400922
 20
641.39564881030458
 30
0
 11
105.74588820736926
 21
643.78144124032474
 31
0
  0
LINE
  5
409
330
1F
100
AcDbEntity
  8
0
 62
2
100
AcDbLine
 10
105.74588820736926
 20
643.78144124032474
 30
0
 11
102.53997962952985
 21
686.661764818751
 31
0
  0
LINE
  5
40A
330
1F
100
AcDbEntity
  8
0
 62
2
100
AcDbLine
 10
102.53997962952985
 20
686.661764818751
 30
0
 11
99.324661106999656
 21
689.42974726065233
 31
0
  0
LINE
  5
40B
330
1F
100
AcDbEntity
  8
0
 62
2
100
AcDbLine
 10
99.324661106999656
 20
689.42974726065233
 30
0
 11
82.180068065419619
 21
918.74565827392291
 31
0
  0
ARC
  5
40C
330
1F
100
AcDbEntity
  8
0
 62
2
100
AcDbCircle
 10
108.10770555148974
 20
920.68411462732718
 30
0
 40
25.9999999739064
100
AcDbArc
 50
156.93134782039746
 51
184.27571233876708
  0
LINE
  5
40D
330
1F
100
AcDbEntity
  8
0
 62
2
100
AcDbLine
 10
84.186769154965759
 20
930.87179348742984
 30
0
 11
112.4944496091066
 21
997.33896754567024
 31
0
  0
ARC
  5
40E
330
1F
100
AcDbEntity
  8
0
 62
2
100
AcDbCircle
 10
64.652576764990954
 20
1017.7143252787024
 30
0
 40
51.9999999998227
100
AcDbArc
 50
336.93134782944236
 51
4.27571232563819
  0
LINE
  5
40F
330
1F
100
AcDbEntity
  8
0
 62
2
100
AcDbLine
 10
116.50785178988508
 20
1021.5912379775064
 30
0
 11
107.99832664011115
 21
1135.409577790233
 31
0
  0
ARC
  5
410
330
1F
100
AcDbEntity
  8
0
 62
2
100
AcDbCircle
 10
133.92596415393996
 20
1137.3480341385125
 30
0
 40
26.0000000012057
100
AcDbArc
 50
94.275712328257
 51
184.27571232294443
  0
LINE
  5
411
330
1F
100
AcDbEntity
  8
0
 62
2
100
AcDbLine
 10
131.98750780325645
 20
1163.2756716521612
 30
0
 11
177.64735194244258
 21
1166.6893885686993
 31
0
  0
LINE
  5
412
330
1F
100
AcDbEntity
  8
0
 62
2
100
AcDbLine
 10
177.64735194244258
 20
1166.6893885686993
 30
0
 11
180.862670464973
 21
1163.921406126794
 31
0
  0
LINE
  5
413
330
1F
100
AcDbEntity
  8
0
 62
2
100
AcDbLine
 10
180.862670464973
 20
1163.921406126794
 30
0
 11
223.7429940434032
 21
1167.1273147045806
 31
0
  0
LINE
  5
414
330
1F
100
AcDbEntity
  8
0
 62
2
100
AcDbLine
 10
223.7429940434032
 20
1167.1273147045806
 30
0
 11
221.35720161338315
 21
1199.038253181549
 31
0
  0
LINE
  5
415
330
1F
100
AcDbEntity
  8
0
 62
2
100
AcDbLine
 10
221.35720161338315
 20
1199.038253181549
 30
0
 11
178.47687803495296
 21
1195.8323446037623
 31
0
  0
LINE
  5
416
330
1F
100
AcDbEntity
  8
0
 62
2
100
AcDbLine
 10
178.47687803495296
 20
1195.8323446037623
 30
0
 11
175.70889559305124
 21
1192.6170260812362
 31
0
  0
LINE
  5
417
330
1F
100
AcDbEntity
  8
0
 62
2
100
AcDbLine
 10
175.70889559305124
 20
1192.6170260812362
 30
0
 11
130.0490514538651
 21
1189.2033091646981
 31
0
  0
ARC
  5
418
330
1F
100
AcDbEntity
  8
0
 62
2
100
AcDbCircle
 10
133.92596415554863
 20
1137.3480341371278
 30
0
 40
52.0000000027066
100
AcDbArc
 50
94.275712328582344
 51
184.27571232261863
  0
LINE
  5
419
330
1F
100
AcDbEntity
  8
0
 62
2
100
AcDbLine
 10
82.070689127574269
 20
1133.4711214408417
 30
0
 11
90.580214277348432
 21
1019.652781628115
 31
0
  0
ARC
  5
41A
330
1F
100
AcDbEntity
  8
0
 62
2
100
AcDbCircle
 10
64.652576696448932
 20
1017.7143252914743
 30
0
 40
26.0000000672217
100
AcDbArc
 50
336.93134788385908
 51
4.2757122863480177
  0
LINE
  5
41B
330
1F
100
AcDbEntity
  8
0
 62
2
100
AcDbLine
 10
88.573513190110589
 20
1007.5266464213026
 30
0
 11
60.265832735311051
 21
941.05947236192026
 31
0
  0
ARC
  5
41C
330
1F
100
AcDbEntity
  8
0
 62
2
100
AcDbCircle
 10
108.10770434247866
 20
920.68410740404477
 30
0
 40
52.0000016927244
100
AcDbArc
 50
156.9313399713329
 51
184.27570449473853
  0
LINE
  5
41D
330
1F
100
AcDbEntity
  8
0
 62
2
100
AcDbLine
 10
94.186862668007279
 20
879.602138701442
 30
0
 11
114.22884147949594
 21
650.52127263068644
 31
0
  0
LINE
  5
41E
330
1F
100
AcDbEntity
  8
0
 62
2
100
AcDbLine
 10
114.22884147949594
 20
650.52127263068644
 30
0
 11
111.50172461345801
 21
647.271221308173
 31
0
  0
LINE
  5
41F
330
1F
100
AcDbEntity
  8
0
 62
2
100
AcDbLine
 10
111.50172461345801
 20
647.271221308173
 30
0
 11
115.24942155153258
 21
604.43484929022145
 31
0
  0
LINE
  5
420
330
1F
100
AcDbEntity
  8
0
 62
2
100
AcDbLine
 10
115.24942155153258
 20
604.43484929022145
 30
0
 11
147.12765189047332
 21
607.2238330580908
 31
0
  0
LINE
  5
421
330
1F
100
AcDbEntity
  8
0
 62
2
100
AcDbLine
 10
147.12765189047332
 20
607.2238330580908
 30
0
 11
143.37995495239875
 21
650.06020507604239
 31
0
  0
LINE
  5
422
330
1F
100
AcDbEntity
  8
0
 62
2
100
AcDbLine
 10
143.37995495239875
 20
650.06020507604239
 30
0
 11
140.12990362988535
 21
652.78732194208033
 31
0
  0
LINE
  5
423
330
1F
100
AcDbEntity
  8
0
 62
2
100
AcDbLine
 10
140.12990362988535
 20
652.78732194208033
 30
0
 11
120.08792826822173
 21
881.86818831465644
 31
0
  0
ARC
  5
424
330
1F
100
AcDbEntity
  8
0
 62
2
100
AcDbCircle
 10
145.98899039209596
 20
884.13423762972855
 30
0
 40
25.9999999739064
100
AcDbArc
 50
157.65563549469775
 51
185.00000001306734
  0
LINE
  5
425
330
1F
100
AcDbEntity
  8
0
 62
2
100
AcDbLine
 10
121.94118415017056
 20
894.01872110606359
 30
0
 11
149.40640007815568
 21
960.83841815724259
 31
0
  0
ARC
  5
426
330
1F
100
AcDbEntity
  8
0
 62
2
100
AcDbCircle
 10
101.31078754307919
 20
980.60738512209321
 30
0
 40
51.9999999998227
100
AcDbArc
 50
337.65563550374242
 51
4.9999999999381775
  0
LINE
  5
427
330
1F
100
AcDbEntity
  8
0
 62
2
100
AcDbLine
 10
153.11291184367815
 20
985.13948374490008
 30
0
 11
143.16530398963005
 21
1098.8411618063167
 31
0
  0
ARC
  5
428
330
1F
100
AcDbEntity
  8
0
 62
2
100
AcDbCircle
 10
169.06636614132549
 20
1101.1072111166154
 30
0
 40
26.0000000012057
100
AcDbArc
 50
95.000000002556973
 51
184.99999999724491
  0
LINE
  5
429
330
1F
100
AcDbEntity
  8
0
 62
2
100
AcDbLine
 10
166.80031682862545
 20
1127.0082732681
 30
0
 11
212.41336044875175
 21
1130.99889749364
 31
0
  0
LINE
  5
42A
330
1F
100
AcDbEntity
  8
0
 62
2
100
AcDbLine
 10
212.41336044875175
 20
1130.99889749364
 30
0
 11
215.6634117712656
 21
1128.2717806275982
 31
0
  0
LINE
  5
42B
330
1F
100
AcDbEntity
  8
0
 62
2
100
AcDbLine
 10
215.6634117712656
 20
1128.2717806275982
 30
0
 11
258.49978378922174
 21
1132.01947756562
 31
0
  0
LINE
  5
42C
330
1F
100
AcDbEntity
  8
0
 62
2
100
AcDbLine
 10
258.49978378922174
 20
1132.01947756562
 30
0
 11
255.71080002135238
 21
1163.8977079045608
 31
0
  0
LINE
  5
42D
330
1F
100
AcDbEntity
  8
0
 62
2
100
AcDbLine
 10
255.71080002135238
 20
1163.8977079045608
 30
0
 11
212.87442800339613
 21
1160.150010966539
 31
0
  0
LINE
  5
42E
330
1F
100
AcDbEntity
  8
0
 62
2
100
AcDbLine
 10
212.87442800339613
 20
1160.150010966539
 30
0
 11
210.14731113735786
 21
1156.8999596440294
 31
0
  0
LINE
  5
42F
330
1F
100
AcDbEntity
  8
0
 62
2
100
AcDbLine
 10
210.14731113735786
 20
1156.8999596440294
 30
0
 11
164.53426751723146
 21
1152.9093354184895
 31
0
  0
ARC
  5
430
330
1F
100
AcDbEntity
  8
0
 62
2
100
AcDbCircle
 10
169.06636614295144
 20
1101.1072111152509
 30
0
 40
52.0000000027066
100
AcDbArc
 50
95.000000002882274
 51
184.99999999691843
  0
LINE
  5
431
330
1F
100
AcDbEntity
  8
0
 62
2
100
AcDbLine
 10
117.26424183924064
 20
1096.5751124949229
 30
0
 11
127.21184969328897
 21
982.87343443350619
 31
0
  0
ARC
  5
432
330
1F
100
AcDbEntity
  8
0
 62
2
100
AcDbCircle
 10
101.31078747438119
 20
980.6073851339977
 30
0
 40
26.0000000672217
100
AcDbArc
 50
337.65563555815896
 51
4.9999999606480729
  0
LINE
  5
433
330
1F
100
AcDbEntity
  8
0
 62
2
100
AcDbLine
 10
125.35859381356386
 20
970.72290164882213
 30
0
 11
97.893377884934353
 21
903.90320459649308
 31
0
  0
ARC
  5
434
330
1F
100
AcDbEntity
  8
0
 62
2
100
AcDbCircle
 10
145.98898927449
 20
884.13423039174029
 30
0
 40
52.0000016927244
100
AcDbArc
 50
157.65562764563296
 51
184.99999216903859
  0
ARC
  5
435
330
1F
100
AcDbEntity
  8
0
 62
2
100
AcDbCircle
 10
9.008778797393461
 20
458.39150396041185
 30
0
 40
3.99999990846586
100
AcDbArc
 50
174.99999945674173
 51
220.00000054293142
  0
LINE
  5
436
330
1F
100
AcDbEntity
  8
0
 62
2
100
AcDbLine
 10
5.9446011194008861
 20
455.82035355146678
 30
0
 11
10.892173523934389
 21
449.92406636374409
 31
0
  0
ARC
  5
437
330
1F
100
AcDbEntity
  8
0
 62
2
100
AcDbCircle
 10
9.360084368354137
 20
448.638491059443
 30
0
 40
2.00000026091883
100
AcDbArc
 50
355.00000309634709
 51
39.999996903986272
  0
LINE
  5
438
330
1F
100
AcDbEntity
  8
0
 62
2
100
AcDbLine
 10
11.352474033883482
 20
448.46417965887878
 30
0
 11
11.337520472505958
 21
448.29325967021867
 31
0
  0
LINE
  5
439
330
1F
100
AcDbEntity
  8
0
 62
2
100
AcDbLine
 10
11.337520472505958
 20
448.29325967021867
 30
0
 11
8.0874691499875553
 21
445.56614280418643
 31
0
  0
LINE
  5
43A
330
1F
100
AcDbEntity
  8
0
 62
2
100
AcDbLine
 10
8.0874691499875553
 20
445.56614280418643
 30
0
 11
5.3856411248102631
 21
414.68410716334233
 31
0
  0
LINE
  5
43B
330
1F
100
AcDbEntity
  8
0
 62
2
100
AcDbLine
 10
5.3856411248102631
 20
414.68410716334233
 30
0
 11
33.318398626947328
 21
412.24030754088659
 31
0
  0
LINE
  5
43C
330
1F
100
AcDbEntity
  8
0
 62
2
100
AcDbLine
 10
33.318398626947328
 20
412.24030754088659
 30
0
 11
36.020226652124848
 21
443.12234318173074
 31
0
  0
LINE
  5
43D
330
1F
100
AcDbEntity
  8
0
 62
2
100
AcDbLine
 10
36.020226652124848
 20
443.12234318173074
 30
0
 11
33.29065302631534
 21
446.3726094428784
 31
0
  0
LINE
  5
43E
330
1F
100
AcDbEntity
  8
0
 62
2
100
AcDbLine
 10
33.29065302631534
 20
446.3726094428784
 30
0
 11
33.654206684370365
 21
450.49975093792943
 31
0
  0
ARC
  5
43F
330
1F
100
AcDbEntity
  8
0
 62
2
100
AcDbCircle
 10
29.669845675123725
 20
450.85311742156517
 30
0
 40
4.00000006547017
100
AcDbArc
 50
354.93179115936243
 51
39.931790382413432
  0
LINE
  5
440
330
1F
100
AcDbEntity
  8
0
 62
2
100
AcDbLine
 10
32.737082235096295
 20
453.42061823148316
 30
0
 11
30.366567610699121
 21
456.25252737583736
 31
0
  0
ARC
  5
441
330
1F
100
AcDbEntity
  8
0
 62
2
100
AcDbCircle
 10
31.90018576585453
 20
457.53627781763822
 30
0
 40
1.99999996066156
100
AcDbArc
 50
84.999997283652135
 51
219.93179348717217
  0
LINE
  5
442
330
1F
100
AcDbEntity
  8
0
 62
2
100
AcDbLine
 10
32.074497342378891
 20
459.528667166369
 30
0
 11
55.139635015805879
 21
457.51072909727947
 31
0
  0
ARC
  5
443
330
1F
100
AcDbEntity
  8
0
 62
2
100
AcDbCircle
 10
58.015774532294927
 20
490.38515412737524
 30
0
 40
32.9999999936015
100
AcDbArc
 50
264.999999988891
 51
355.00000001110936
  0
LINE
  5
444
330
1F
100
AcDbEntity
  8
0
 62
2
100
AcDbLine
 10
90.89019956350603
 20
487.50901462363436
 30
0
 11
90.959924157704108
 21
488.30597038210692
 31
0
  0
ARC
  5
445
330
1F
100
AcDbEntity
  8
0
 62
2
100
AcDbCircle
 10
58.0854991231779
 20
491.1821098948439
 30
0
 40
32.9999999976881
100
AcDbArc
 50
354.99999999605109
 51
84.131848913704786
  0
LINE
  5
446
330
1F
100
AcDbEntity
  8
0
 62
2
100
AcDbLine
 10
61.459405826056354
 20
524.00918337707333
 30
0
 11
49.174584384613127
 21
525.08776855276187
 31
0
  0
LINE
  5
447
330
1F
100
AcDbEntity
  8
0
 62
2
100
AcDbLine
 10
49.174584384613127
 20
525.08776855276187
 30
0
 11
46.447467518580652
 21
528.33781987528
 31
0
  0
LINE
  5
448
330
1F
100
AcDbEntity
  8
0
 62
2
100
AcDbLine
 10
46.447467518580652
 20
528.33781987528
 30
0
 11
18.554015972011939
 21
530.77818067221449
 31
0
  0
LINE
  5
449
330
1F
100
AcDbEntity
  8
0
 62
2
100
AcDbLine
 10
18.554015972011939
 20
530.77818067221449
 30
0
 11
15.765032204086765
 21
498.89995033327858
 31
0
  0
LINE
  5
44A
330
1F
100
AcDbEntity
  8
0
 62
2
100
AcDbLine
 10
15.765032204086765
 20
498.89995033327858
 30
0
 11
43.658483750655705
 21
496.45958953634414
 31
0
  0
LINE
  5
44B
330
1F
100
AcDbEntity
  8
0
 62
2
100
AcDbLine
 10
43.658483750655705
 20
496.45958953634414
 30
0
 11
46.90853507317388
 21
499.18670640237639
 31
0
  0
LINE
  5
44C
330
1F
100
AcDbEntity
  8
0
 62
2
100
AcDbLine
 10
46.90853507317388
 20
499.18670640237639
 30
0
 11
59.192128326182683
 21
498.0940829686441
 31
0
  0
ARC
  5
44D
330
1F
100
AcDbEntity
  8
0
 62
2
100
AcDbCircle
 10
58.085499098424634
 20
491.1821098754217
 30
0
 40
7.00000002065425
100
AcDbArc
 50
355.00000015741023
 51
80.903956084463388
  0
LINE
  5
44E
330
1F
100
AcDbEntity
  8
0
 62
2
100
AcDbLine
 10
65.0588620073188
 20
490.57201969354605
 30
0
 11
64.989137413120716
 21
489.77506393507349
 31
0
  0
ARC
  5
44F
330
1F
100
AcDbEntity
  8
0
 62
2
100
AcDbCircle
 10
58.015774486349528
 20
490.38515418213069
 30
0
 40
7.00000004414424
100
AcDbArc
 50
265.00000036132661
 51
354.99999963867532
  0
LINE
  5
450
330
1F
100
AcDbEntity
  8
0
 62
2
100
AcDbLine
 10
57.4056843272449
 20
483.41179124766484
 30
0
 11
17.525939594324427
 21
486.90081681610309
 31
0
  0
ARC
  5
451
330
1F
100
AcDbEntity
  8
0
 62
2
100
AcDbCircle
 10
16.654382141245605
 20
476.938869865697
 30
0
 40
9.99999997183605
100
AcDbArc
 50
84.999999838631851
 51
175.00000016136724
  0
LINE
  5
452
330
1F
100
AcDbEntity
  8
0
 62
2
100
AcDbLine
 10
6.6924351859302078
 20
477.81042726266219
 30
0
 11
5.0240000995179344
 21
458.740126961207
 31
0
  0
ARC
  5
453
330
1F
100
AcDbEntity
  8
0
 62
2
100
AcDbCircle
 10
688.53349525174735
 20
518.16909806996671
 30
0
 40
3.99999990846586
100
AcDbArc
 50
89.999999456741293
 51
135.00000054293037
  0
LINE
  5
454
330
1F
100
AcDbEntity
  8
0
 62
2
100
AcDbLine
 10
685.70506816492366
 20
520.99752510318649
 30
0
 11
680.26242747780293
 21
515.55488441606576
 31
0
  0
ARC
  5
455
330
1F
100
AcDbEntity
  8
0
 62
2
100
AcDbCircle
 10
678.84821380735036
 20
516.96909823935425
 30
0
 40
2.00000026091883
100
AcDbArc
 50
270.00000309634578
 51
314.99999690398522
  0
LINE
  5
456
330
1F
100
AcDbEntity
  8
0
 62
2
100
AcDbLine
 10
678.84821391543323
 20
514.96909797843546
 30
0
 11
678.67664104018354
 21
514.96909797843546
 31
0
  0
LINE
  5
457
330
1F
100
AcDbEntity
  8
0
 62
2
100
AcDbLine
 10
678.67664104018354
 20
514.96909797843546
 30
0
 11
675.67664104018354
 21
517.96909797843546
 31
0
  0
LINE
  5
458
330
1F
100
AcDbEntity
  8
0
 62
2
100
AcDbLine
 10
675.67664104018354
 20
517.96909797843546
 30
0
 11
644.67664104018354
 21
517.96909797843546
 31
0
  0
LINE
  5
459
330
1F
100
AcDbEntity
  8
0
 62
2
100
AcDbLine
 10
644.67664104018354
 20
517.96909797843546
 30
0
 11
644.67664104018354
 21
489.92964188050252
 31
0
  0
LINE
  5
45A
330
1F
100
AcDbEntity
  8
0
 62
2
100
AcDbLine
 10
644.67664104018354
 20
489.92964188050252
 30
0
 11
675.67664104018354
 21
489.92964188050252
 31
0
  0
LINE
  5
45B
330
1F
100
AcDbEntity
  8
0
 62
2
100
AcDbLine
 10
675.67664104018354
 20
489.92964188050252
 30
0
 11
678.67664104018354
 21
492.93210802470281
 31
0
  0
LINE
  5
45C
330
1F
100
AcDbEntity
  8
0
 62
2
100
AcDbLine
 10
678.67664104018354
 20
492.93210802470281
 30
0
 11
682.81976330492421
 21
492.92964188050252
 31
0
  0
ARC
  5
45D
330
1F
100
AcDbEntity
  8
0
 62
2
100
AcDbCircle
 10
682.82452517926981
 20
496.92963911154078
 30
0
 40
4.00000006547017
100
AcDbArc
 50
269.93179115936158
 51
314.93179038241465
  0
LINE
  5
45E
330
1F
100
AcDbEntity
  8
0
 62
2
100
AcDbLine
 10
685.6495831540235
 20
494.09784675279673
 30
0
 11
688.26411206632315
 21
496.70615799824009
 31
0
  0
ARC
  5
45F
330
1F
100
AcDbEntity
  8
0
 62
2
100
AcDbCircle
 10
689.67664107952191
 20
495.2902619464349
 30
0
 40
1.99999996066156
100
AcDbArc
 50
359.99999728364952
 51
134.93179348717277
  0
LINE
  5
460
330
1F
100
AcDbEntity
  8
0
 62
2
100
AcDbLine
 10
691.67664104018354
 20
495.29026185161638
 30
0
 11
691.67664104018354
 21
472.13701909936213
 31
0
  0
ARC
  5
461
330
1F
100
AcDbEntity
  8
0
 62
2
100
AcDbCircle
 10
724.67664103378524
 20
472.13701909296361
 30
0
 40
32.9999999936015
100
AcDbArc
 50
179.99999998889066
 51
270.00000001110897
  0
LINE
  5
462
330
1F
100
AcDbEntity
  8
0
 62
2
100
AcDbLine
 10
724.67664104018354
 20
439.13701909936213
 30
0
 11
725.47664104018281
 21
439.13701909936213
 31
0
  0
ARC
  5
463
330
1F
100
AcDbEntity
  8
0
 62
2
100
AcDbCircle
 10
725.47664104245723
 20
472.1370190970502
 30
0
 40
32.9999999976881
100
AcDbArc
 50
269.99999999605109
 51
359.13184891370457
  0
LINE
  5
464
330
1F
100
AcDbEntity
  8
0
 62
2
100
AcDbLine
 10
758.472852943973
 20
471.637019099362
 30
0
 11
758.47664104018281
 21
483.96909797843546
 31
0
  0
LINE
  5
465
330
1F
100
AcDbEntity
  8
0
 62
2
100
AcDbLine
 10
758.47664104018281
 20
483.96909797843546
 30
0
 11
761.47664104018281
 21
486.96909797843546
 31
0
  0
LINE
  5
466
330
1F
100
AcDbEntity
  8
0
 62
2
100
AcDbLine
 10
761.47664104018281
 20
486.96909797843546
 30
0
 11
761.47664104018281
 21
514.96909797843546
 31
0
  0
LINE
  5
467
330
1F
100
AcDbEntity
  8
0
 62
2
100
AcDbLine
 10
761.47664104018281
 20
514.96909797843546
 30
0
 11
729.47664104018281
 21
514.96909797843546
 31
0
  0
LINE
  5
468
330
1F
100
AcDbEntity
  8
0
 62
2
100
AcDbLine
 10
729.47664104018281
 20
514.96909797843546
 30
0
 11
729.47664104018281
 21
486.96909797843551
 31
0
  0
LINE
  5
469
330
1F
100
AcDbEntity
  8
0
 62
2
100
AcDbLine
 10
729.47664104018281
 20
486.96909797843551
 30
0
 11
732.47664104018281
 21
483.96909797843551
 31
0
  0
LINE
  5
46A
330
1F
100
AcDbEntity
  8
0
 62
2
100
AcDbLine
 10
732.47664104018281
 20
483.96909797843551
 30
0
 11
732.458761062064
 21
471.63701909936213
 31
0
  0
ARC
  5
46B
330
1F
100
AcDbEntity
  8
0
 62
2
100
AcDbCircle
 10
725.47664102095155
 20
472.13701912001642
 30
0
 40
7.00000002065425
100
AcDbArc
 50
270.00000015741
 51
355.90395608446352
  0
LINE
  5
46C
330
1F
100
AcDbEntity
  8
0
 62
2
100
AcDbLine
 10
725.47664104018281
 20
465.13701909936213
 30
0
 11
724.67664104018365
 21
465.13701909936213
 31
0
  0
ARC
  5
46D
330
1F
100
AcDbEntity
  8
0
 62
2
100
AcDbCircle
 10
724.67664108432791
 20
472.13701914350639
 30
0
 40
7.00000004414424
100
AcDbArc
 50
180.00000036132568
 51
269.99999963867435
  0
LINE
  5
46E
330
1F
100
AcDbEntity
  8
0
 62
2
100
AcDbLine
 10
717.67664104018365
 20
472.13701909936213
 30
0
 11
717.67664104018365
 21
512.16909797843255
 31
0
  0
ARC
  5
46F
330
1F
100
AcDbEntity
  8
0
 62
2
100
AcDbCircle
 10
707.67664106834764
 20
512.16909800659653
 30
0
 40
9.99999997183605
100
AcDbArc
 50
359.99999983863228
 51
90.000000161367737
  0
LINE
  5
470
330
1F
100
AcDbEntity
  8
0
 62
2
100
AcDbLine
 10
707.67664104018365
 20
522.16909797843255
 30
0
 11
688.533495289674
 21
522.16909797843255
 31
0
  0
ARC
  5
471
330
1F
100
AcDbEntity
  8
0
 62
2
100
AcDbCircle
 10
641.81978732760751
 20
446.958666714406
 30
0
 40
3.99999990846586
100
AcDbArc
 50
269.999999456642
 51
315.00000054283078
  0
LINE
  5
472
330
1F
100
AcDbEntity
  8
0
 62
2
100
AcDbLine
 10
644.64821441442632
 20
444.13023968118125
 30
0
 11
650.0908551015566
 21
449.57288036829249
 31
0
  0
ARC
  5
473
330
1F
100
AcDbEntity
  8
0
 62
2
100
AcDbCircle
 10
651.50506877200667
 20
448.15866654500149
 30
0
 40
2.00000026091883
100
AcDbArc
 50
90.000003096244853
 51
134.99999690388387
  0
LINE
  5
474
330
1F
100
AcDbEntity
  8
0
 62
2
100
AcDbLine
 10
651.50506866392732
 20
450.15866680592035
 30
0
 11
651.676641539177
 21
450.15866680592
 31
0
  0
LINE
  5
475
330
1F
100
AcDbEntity
  8
0
 62
2
100
AcDbLine
 10
651.676641539177
 20
450.15866680592
 30
0
 11
654.67664153917167
 21
447.15866680591478
 31
0
  0
LINE
  5
476
330
1F
100
AcDbEntity
  8
0
 62
2
100
AcDbLine
 10
654.67664153917167
 20
447.15866680591478
 30
0
 11
685.67664153917167
 21
447.15866680586066
 31
0
  0
LINE
  5
477
330
1F
100
AcDbEntity
  8
0
 62
2
100
AcDbLine
 10
685.67664153917167
 20
447.15866680586066
 30
0
 11
685.67664153922067
 21
475.19812290379372
 31
0
  0
LINE
  5
478
330
1F
100
AcDbEntity
  8
0
 62
2
100
AcDbLine
 10
685.67664153922067
 20
475.19812290379372
 30
0
 11
654.67664153922067
 21
475.19812290384783
 31
0
  0
LINE
  5
479
330
1F
100
AcDbEntity
  8
0
 62
2
100
AcDbLine
 10
654.67664153922067
 20
475.19812290384783
 30
0
 11
651.67664153921544
 21
472.19565675965276
 31
0
  0
LINE
  5
47A
330
1F
100
AcDbEntity
  8
0
 62
2
100
AcDbLine
 10
651.67664153921544
 20
472.19565675965276
 30
0
 11
647.53351927447477
 21
472.19812290386028
 31
0
  0
ARC
  5
47B
330
1F
100
AcDbEntity
  8
0
 62
2
100
AcDbCircle
 10
647.52875740012223
 20
468.19812567282196
 30
0
 40
4.00000006547017
100
AcDbArc
 50
89.931791159262275
 51
134.93179038231443
  0
LINE
  5
47C
330
1F
100
AcDbEntity
  8
0
 62
2
100
AcDbLine
 10
644.70369942537343
 20
471.029918031571
 30
0
 11
642.08917051306923
 21
468.42160678613214
 31
0
  0
ARC
  5
47D
330
1F
100
AcDbEntity
  8
0
 62
2
100
AcDbCircle
 10
640.67664149987286
 20
469.83750283793984
 30
0
 40
1.99999996066156
100
AcDbArc
 50
179.99999728355019
 51
314.93179348707378
  0
LINE
  5
47E
330
1F
100
AcDbEntity
  8
0
 62
2
100
AcDbLine
 10
638.67664153921135
 20
469.83750293276182
 30
0
 11
638.6766415392517
 21
492.99074568501612
 31
0
  0
ARC
  5
47F
330
1F
100
AcDbEntity
  8
0
 62
2
100
AcDbCircle
 10
605.67664154565023
 20
492.99074569147223
 30
0
 40
32.9999999936015
100
AcDbArc
 50
359.99999998879065
 51
90.000000011009277
  0
LINE
  5
480
330
1F
100
AcDbEntity
  8
0
 62
2
100
AcDbLine
 10
605.67664153930934
 20
525.99074568507365
 30
0
 11
604.87664153931007
 21
525.99074568507513
 31
0
  0
ARC
  5
481
330
1F
100
AcDbEntity
  8
0
 62
2
100
AcDbCircle
 10
604.87664153697813
 20
492.990745687387
 30
0
 40
32.9999999976881
100
AcDbArc
 50
89.999999995951185
 51
179.1318489136047
  0
LINE
  5
482
330
1F
100
AcDbEntity
  8
0
 62
2
100
AcDbLine
 10
571.88042963546332
 20
493.49074568513271
 30
0
 11
571.87664153923185
 21
481.15866680605933
 31
0
  0
LINE
  5
483
330
1F
100
AcDbEntity
  8
0
 62
2
100
AcDbLine
 10
571.87664153923185
 20
481.15866680605933
 30
0
 11
568.87664153922663
 21
478.15866680606456
 31
0
  0
LINE
  5
484
330
1F
100
AcDbEntity
  8
0
 62
2
100
AcDbLine
 10
568.87664153922663
 20
478.15866680606456
 30
0
 11
568.87664153917774
 21
450.15866680606456
 31
0
  0
LINE
  5
485
330
1F
100
AcDbEntity
  8
0
 62
2
100
AcDbLine
 10
568.87664153917774
 20
450.15866680606456
 30
0
 11
600.87664153917774
 21
450.15866680600868
 31
0
  0
LINE
  5
486
330
1F
100
AcDbEntity
  8
0
 62
2
100
AcDbLine
 10
600.87664153917774
 20
450.15866680600868
 30
0
 11
600.87664153922663
 21
478.15866680600868
 31
0
  0
LINE
  5
487
330
1F
100
AcDbEntity
  8
0
 62
2
100
AcDbLine
 10
600.87664153922663
 20
478.15866680600868
 30
0
 11
597.87664153923185
 21
481.15866680601397
 31
0
  0
LINE
  5
488
330
1F
100
AcDbEntity
  8
0
 62
2
100
AcDbLine
 10
597.87664153923185
 20
481.15866680601397
 30
0
 11
597.89452151737214
 21
493.49074568508729
 31
0
  0
ARC
  5
489
330
1F
100
AcDbEntity
  8
0
 62
2
100
AcDbCircle
 10
604.87664155848381
 20
492.99074566442084
 30
0
 40
7.00000002065425
100
AcDbArc
 50
90.0000001573105
 51
175.90395608436378
  0
LINE
  5
48A
330
1F
100
AcDbEntity
  8
0
 62
2
100
AcDbLine
 10
604.87664153926471
 20
499.99074568507513
 30
0
 11
605.67664153926387
 21
499.9907456850737
 31
0
  0
ARC
  5
48B
330
1F
100
AcDbEntity
  8
0
 62
2
100
AcDbCircle
 10
605.67664149510745
 20
492.99074564092945
 30
0
 40
7.00000004414424
100
AcDbArc
 50
3.6122563254384078E-07
 51
89.999999638574764
  0
LINE
  5
48C
330
1F
100
AcDbEntity
  8
0
 62
2
100
AcDbLine
 10
612.6766415392517
 20
492.99074568506148
 30
0
 11
612.67664153918179
 21
452.958666805991
 31
0
  0
ARC
  5
48D
330
1F
100
AcDbEntity
  8
0
 62
2
100
AcDbCircle
 10
622.67664151101792
 20
452.95866677780958
 30
0
 40
9.99999997183605
100
AcDbArc
 50
179.99999983853229
 51
270.00000016126739
  0
LINE
  5
48E
330
1F
100
AcDbEntity
  8
0
 62
2
100
AcDbLine
 10
622.67664153916439
 20
442.95866680597356
 30
0
 11
641.819787289674
 21
442.95866680594014
 31
0
  0
ARC
  5
48F
330
1F
100
AcDbEntity
  8
0
 62
2
100
AcDbCircle
 10
514.3791760375999
 20
528.34642388080238
 30
0
 40
3.99999990846586
100
AcDbArc
 50
274.99999945664189
 51
320.00000054283032
  0
LINE
  5
490
330
1F
100
AcDbEntity
  8
0
 62
2
100
AcDbLine
 10
517.44335376431616
 20
525.77527352992377
 30
0
 11
522.39092616885989
 21
531.67156071763782
 31
0
  0
ARC
  5
491
330
1F
100
AcDbEntity
  8
0
 62
2
100
AcDbCircle
 10
523.92301518550414
 20
530.38598524775932
 30
0
 40
2.00000026091883
100
AcDbArc
 50
95.000003096249429
 51
139.99999690388739
  0
LINE
  5
492
330
1F
100
AcDbEntity
  8
0
 62
2
100
AcDbLine
 10
523.7487035696
 20
532.37837489444894
 30
0
 11
523.91962355826024
 21
532.39332845582646
 31
0
  0
LINE
  5
493
330
1F
100
AcDbEntity
  8
0
 62
2
100
AcDbLine
 10
523.91962355826024
 20
532.39332845582646
 30
0
 11
527.16967488077364
 21
529.66621158978842
 31
0
  0
LINE
  5
494
330
1F
100
AcDbEntity
  8
0
 62
2
100
AcDbLine
 10
527.16967488077364
 20
529.66621158978842
 30
0
 11
558.05171052162245
 21
532.36803961491194
 31
0
  0
LINE
  5
495
330
1F
100
AcDbEntity
  8
0
 62
2
100
AcDbLine
 10
558.05171052162245
 20
532.36803961491194
 30
0
 11
555.60791089921554
 21
560.30079711705332
 31
0
  0
LINE
  5
496
330
1F
100
AcDbEntity
  8
0
 62
2
100
AcDbLine
 10
555.60791089921554
 20
560.30079711705332
 30
0
 11
524.72587525836673
 21
557.59896909192992
 31
0
  0
LINE
  5
497
330
1F
100
AcDbEntity
  8
0
 62
2
100
AcDbLine
 10
524.72587525836673
 20
557.59896909192992
 30
0
 11
521.99897333095828
 21
554.34646100963937
 31
0
  0
LINE
  5
498
330
1F
100
AcDbEntity
  8
0
 62
2
100
AcDbLine
 10
521.99897333095828
 20
554.34646100963937
 30
0
 11
517.87140195864765
 21
553.9878208711458
 31
0
  0
ARC
  5
499
330
1F
100
AcDbEntity
  8
0
 62
2
100
AcDbCircle
 10
518.21528093432437
 20
550.00262981250773
 30
0
 40
4.00000006547017
100
AcDbArc
 50
94.931791159261962
 51
139.9317903823148
  0
LINE
  5
49A
330
1F
100
AcDbEntity
  8
0
 62
2
100
AcDbLine
 10
515.15416619174391
 20
552.57742632029579
 30
0
 11
512.77691565521218
 21
549.7511692773295
 31
0
  0
ARC
  5
49B
330
1F
100
AcDbEntity
  8
0
 62
2
100
AcDbCircle
 10
511.24635826931649
 20
551.03856740189156
 30
0
 40
1.99999996066156
100
AcDbArc
 50
184.99999728355033
 51
319.93179348707338
  0
LINE
  5
49C
330
1F
100
AcDbEntity
  8
0
 62
2
100
AcDbLine
 10
509.25396890405739
 20
550.864256014286
 30
0
 11
507.23603083500814
 21
573.92939368771636
 31
0
  0
ARC
  5
49D
330
1F
100
AcDbEntity
  8
0
 62
2
100
AcDbCircle
 10
474.36160580379192
 20
571.05325418403288
 30
0
 40
32.9999999936015
100
AcDbArc
 50
4.9999999887905977
 51
95.000000011009163
  0
LINE
  5
49E
330
1F
100
AcDbEntity
  8
0
 62
2
100
AcDbLine
 10
471.48546628736017
 20
603.92767921413372
 30
0
 11
470.68851052888749
 21
603.857954619937
 31
0
  0
ARC
  5
49F
330
1F
100
AcDbEntity
  8
0
 62
2
100
AcDbCircle
 10
473.56465003703556
 20
570.98352958500925
 30
0
 40
32.9999999976881
100
AcDbArc
 50
94.999999995951057
 51
184.13184891360467
  0
LINE
  5
4A0
330
1F
100
AcDbEntity
  8
0
 62
2
100
AcDbLine
 10
440.65042081245736
 20
568.60581757567377
 30
0
 11
441.72145862540413
 21
556.32033582555107
 31
0
  0
LINE
  5
4A1
330
1F
100
AcDbEntity
  8
0
 62
2
100
AcDbLine
 10
441.72145862540413
 20
556.32033582555107
 30
0
 11
438.99434175936619
 21
553.07028450303756
 31
0
  0
LINE
  5
4A2
330
1F
100
AcDbEntity
  8
0
 62
2
100
AcDbLine
 10
438.99434175936619
 20
553.07028450303756
 30
0
 11
441.43470255625186
 21
525.17683295646441
 31
0
  0
LINE
  5
4A3
330
1F
100
AcDbEntity
  8
0
 62
2
100
AcDbLine
 10
441.43470255625186
 20
525.17683295646441
 30
0
 11
473.3129328951926
 21
527.96581672433388
 31
0
  0
LINE
  5
4A4
330
1F
100
AcDbEntity
  8
0
 62
2
100
AcDbLine
 10
473.3129328951926
 20
527.96581672433388
 30
0
 11
470.87257209830682
 21
555.859268270907
 31
0
  0
LINE
  5
4A5
330
1F
100
AcDbEntity
  8
0
 62
2
100
AcDbLine
 10
470.87257209830682
 20
555.859268270907
 30
0
 11
467.62252077579342
 21
558.586385136945
 31
0
  0
LINE
  5
4A6
330
1F
100
AcDbEntity
  8
0
 62
2
100
AcDbLine
 10
467.62252077579342
 20
558.586385136945
 30
0
 11
466.56552122089045
 21
570.87309507550208
 31
0
  0
ARC
  5
4A7
330
1F
100
AcDbEntity
  8
0
 62
2
100
AcDbCircle
 10
473.56465006046108
 20
570.98352956400481
 30
0
 40
7.00000002065425
100
AcDbArc
 50
95.000000157310339
 51
180.90395608436387
  0
LINE
  5
4A8
330
1F
100
AcDbEntity
  8
0
 62
2
100
AcDbLine
 10
472.95455984028138
 20
577.95689246954771
 30
0
 11
473.75151559875405
 21
578.02661706374431
 31
0
  0
ARC
  5
4A9
330
1F
100
AcDbEntity
  8
0
 62
2
100
AcDbCircle
 10
474.36160575784663
 20
571.05325412927732
 30
0
 40
7.00000004414424
100
AcDbArc
 50
5.0000003612257924
 51
94.99999963857428
  0
LINE
  5
4AA
330
1F
100
AcDbEntity
  8
0
 62
2
100
AcDbLine
 10
481.33496868461873
 20
571.66334437632247
 30
0
 11
484.82399425298729
 21
531.78359964339586
 31
0
  0
ARC
  5
4AB
330
1F
100
AcDbEntity
  8
0
 62
2
100
AcDbCircle
 10
494.78594120830428
 20
532.65515704034362
 30
0
 40
9.99999997183605
100
AcDbArc
 50
184.99999983853237
 51
275.00000016126677
  0
LINE
  5
4AC
330
1F
100
AcDbEntity
  8
0
 62
2
100
AcDbLine
 10
495.65749866136548
 20
522.693210089936
 30
0
 11
514.72779896282361
 21
524.361645176315
 31
0
  0
ARC
  5
4AD
330
1F
100
AcDbEntity
  8
0
 62
2
100
AcDbCircle
 10
553.35779374757283
 20
605.12406190034017
 30
0
 40
3.99999990846586
100
AcDbArc
 50
97.7296601592426
 51
142.72966124543055
  0
LINE
  5
4AE
330
1F
100
AcDbEntity
  8
0
 62
2
100
AcDbLine
 10
550.1746454756269
 20
607.54636789804874
 30
0
 11
545.51348891610382
 21
601.42114995696136
 31
0
  0
ARC
  5
4AF
330
1F
100
AcDbEntity
  8
0
 62
2
100
AcDbCircle
 10
543.92191461299649
 20
602.63230324262076
 30
0
 40
2.00000026091883
100
AcDbArc
 50
277.72966379884559
 51
322.7296576064856
  0
LINE
  5
4B0
330
1F
100
AcDbEntity
  8
0
 62
2
100
AcDbLine
 10
544.19091310832994
 20
600.65047558785773
 30
0
 11
544.0208991947743
 21
600.62739917741487
 31
0
  0
LINE
  5
4B1
330
1F
100
AcDbEntity
  8
0
 62
2
100
AcDbLine
 10
544.0208991947743
 20
600.62739917741487
 30
0
 11
540.64466054893728
 21
603.19664276383412
 31
0
  0
LINE
  5
4B2
330
1F
100
AcDbEntity
  8
0
 62
2
100
AcDbLine
 10
540.64466054893728
 20
603.19664276383412
 30
0
 11
509.92633568227973
 21
599.027168290175
 31
0
  0
LINE
  5
4B3
330
1F
100
AcDbEntity
  8
0
 62
2
100
AcDbLine
 10
509.92633568227973
 20
599.027168290175
 30
0
 11
513.69761943891251
 21
571.24248695144331
 31
0
  0
LINE
  5
4B4
330
1F
100
AcDbEntity
  8
0
 62
2
100
AcDbLine
 10
513.69761943891251
 20
571.24248695144331
 30
0
 11
544.41594430557
 21
575.41196142510228
 31
0
  0
LINE
  5
4B5
330
1F
100
AcDbEntity
  8
0
 62
2
100
AcDbLine
 10
544.41594430557
 20
575.41196142510228
 30
0
 11
546.98485619762494
 21
578.79064380702687
 31
0
  0
LINE
  5
4B6
330
1F
100
AcDbEntity
  8
0
 62
2
100
AcDbLine
 10
546.98485619762494
 20
578.79064380702687
 30
0
 11
551.09066452716934
 21
579.34544660397444
 31
0
  0
ARC
  5
4B7
330
1F
100
AcDbEntity
  8
0
 62
2
100
AcDbCircle
 10
550.55738679986609
 20
583.30973914985486
 30
0
 40
4.00000006547017
100
AcDbArc
 50
277.66145186186264
 51
322.66145108491469
  0
LINE
  5
4B8
330
1F
100
AcDbEntity
  8
0
 62
2
100
AcDbLine
 10
553.73764920599876
 20
580.88364526216208
 30
0
 11
555.9776060235489
 21
583.8199086089802
 31
0
  0
ARC
  5
4B9
330
1F
100
AcDbEntity
  8
0
 62
2
100
AcDbCircle
 10
557.567737235045
 20
582.60686179501465
 30
0
 40
1.99999996066156
100
AcDbArc
 50
7.7296579861504853
 51
142.66145418967687
  0
LINE
  5
4BA
330
1F
100
AcDbEntity
  8
0
 62
2
100
AcDbLine
 10
559.54956461956908
 20
582.875860048906
 30
0
 11
562.66365670466439
 21
559.93299448179857
 31
0
  0
ARC
  5
4BB
330
1F
100
AcDbEntity
  8
0
 62
2
100
AcDbCircle
 10
595.36380897659421
 20
564.37146730139591
 30
0
 40
32.9999999936015
100
AcDbArc
 50
187.72966069139059
 51
277.72966071360923
  0
LINE
  5
4BC
330
1F
100
AcDbEntity
  8
0
 62
2
100
AcDbLine
 10
599.80228180887229
 20
531.67131503118731
 30
0
 11
600.59501277317236
 21
531.778914372443
 31
0
  0
ARC
  5
4BD
330
1F
100
AcDbEntity
  8
0
 62
2
100
AcDbCircle
 10
596.15653994893876
 20
564.47906664786751
 30
0
 40
32.9999999976881
100
AcDbArc
 50
277.72966069855096
 51
6.8615096162047795
  0
LINE
  5
4BE
330
1F
100
AcDbEntity
  8
0
 62
2
100
AcDbLine
 10
628.92018813561674
 20
568.42157312814186
 30
0
 11
627.26528735744114
 21
580.64210860101514
 31
0
  0
LINE
  5
4BF
330
1F
100
AcDbEntity
  8
0
 62
2
100
AcDbLine
 10
627.26528735744114
 20
580.64210860101514
 30
0
 11
629.83453094386027
 21
584.01834724685227
 31
0
  0
LINE
  5
4C0
330
1F
100
AcDbEntity
  8
0
 62
2
100
AcDbLine
 10
629.83453094386027
 20
584.01834724685227
 30
0
 11
626.06855399991025
 21
611.76393099738152
 31
0
  0
LINE
  5
4C1
330
1F
100
AcDbEntity
  8
0
 62
2
100
AcDbLine
 10
626.06855399991025
 20
611.76393099738152
 30
0
 11
594.35931542787671
 21
607.45995734715291
 31
0
  0
LINE
  5
4C2
330
1F
100
AcDbEntity
  8
0
 62
2
100
AcDbLine
 10
594.35931542787671
 20
607.45995734715291
 30
0
 11
598.12529237182684
 21
579.71437359662355
 31
0
  0
LINE
  5
4C3
330
1F
100
AcDbEntity
  8
0
 62
2
100
AcDbLine
 10
598.12529237182684
 20
579.71437359662355
 30
0
 11
601.50153101766386
 21
577.1451300102043
 31
0
  0
LINE
  5
4C4
330
1F
100
AcDbEntity
  8
0
 62
2
100
AcDbLine
 10
601.50153101766386
 20
577.1451300102043
 30
0
 11
603.14246795692145
 21
564.922699190818
 31
0
  0
ARC
  5
4C5
330
1F
100
AcDbEntity
  8
0
 62
2
100
AcDbCircle
 10
596.15653992453952
 20
564.47906666773258
 30
0
 40
7.00000002065425
100
AcDbArc
 50
277.72966085990976
 51
3.6336167869633584
  0
LINE
  5
4C6
330
1F
100
AcDbEntity
  8
0
 62
2
100
AcDbLine
 10
597.09803418236152
 20
557.54267071222023
 30
0
 11
596.30530321806157
 21
557.43507137096458
 31
0
  0
ARC
  5
4C7
330
1F
100
AcDbEntity
  8
0
 62
2
100
AcDbCircle
 10
595.36380901987968
 20
564.37146735827741
 30
0
 40
7.00000004414424
100
AcDbArc
 50
187.7296610638254
 51
277.72966034117547
  0
LINE
  5
4C8
330
1F
100
AcDbEntity
  8
0
 62
2
100
AcDbLine
 10
588.42741304444166
 20
563.42997307260941
 30
0
 11
583.0431313988355
 21
603.09830868857534
 31
0
  0
ARC
  5
4C9
330
1F
100
AcDbEntity
  8
0
 62
2
100
AcDbCircle
 10
573.13399436919508
 20
601.75331695457487
 30
0
 40
9.99999997183605
100
AcDbArc
 50
7.7296605411329136
 51
97.729660863867622
  0
LINE
  5
4CA
330
1F
100
AcDbEntity
  8
0
 62
2
100
AcDbLine
 10
571.78900257937858
 20
611.66245397663931
 30
0
 11
552.81979709118741
 21
609.087716636243
 31
0
  0
ARC
  5
4CB
330
1F
100
AcDbEntity
  8
0
 62
2
100
AcDbCircle
 10
528.96544867753641
 20
613.76334875050111
 30
0
 40
3.99999990846586
100
AcDbArc
 50
274.99999945664189
 51
320.00000054283032
  0
LINE
  5
4CC
330
1F
100
AcDbEntity
  8
0
 62
2
100
AcDbLine
 10
532.02962640425267
 20
611.1921983996225
 30
0
 11
536.9771988087964
 21
617.08848558733655
 31
0
  0
ARC
  5
4CD
330
1F
100
AcDbEntity
  8
0
 62
2
100
AcDbCircle
 10
538.50928782544065
 20
615.802910117458
 30
0
 40
2.00000026091883
100
AcDbArc
 50
95.000003096249429
 51
139.99999690388739
  0
LINE
  5
4CE
330
1F
100
AcDbEntity
  8
0
 62
2
100
AcDbLine
 10
538.33497620953653
 20
617.79529976414767
 30
0
 11
538.50589619819675
 21
617.8102533255252
 31
0
  0
LINE
  5
4CF
330
1F
100
AcDbEntity
  8
0
 62
2
100
AcDbLine
 10
538.50589619819675
 20
617.8102533255252
 30
0
 11
541.75594752071015
 21
615.08313645948715
 31
0
  0
LINE
  5
4D0
330
1F
100
AcDbEntity
  8
0
 62
2
100
AcDbLine
 10
541.75594752071015
 20
615.08313645948715
 30
0
 11
572.637983161559
 21
617.78496448461067
 31
0
  0
LINE
  5
4D1
330
1F
100
AcDbEntity
  8
0
 62
2
100
AcDbLine
 10
572.637983161559
 20
617.78496448461067
 30
0
 11
570.194183539152
 21
645.717721986752
 31
0
  0
LINE
  5
4D2
330
1F
100
AcDbEntity
  8
0
 62
2
100
AcDbLine
 10
570.194183539152
 20
645.717721986752
 30
0
 11
539.31214789830324
 21
643.01589396162865
 31
0
  0
LINE
  5
4D3
330
1F
100
AcDbEntity
  8
0
 62
2
100
AcDbLine
 10
539.31214789830324
 20
643.01589396162865
 30
0
 11
536.58524597089479
 21
639.7633858793381
 31
0
  0
LINE
  5
4D4
330
1F
100
AcDbEntity
  8
0
 62
2
100
AcDbLine
 10
536.58524597089479
 20
639.7633858793381
 30
0
 11
532.45767459858416
 21
639.40474574084453
 31
0
  0
ARC
  5
4D5
330
1F
100
AcDbEntity
  8
0
 62
2
100
AcDbCircle
 10
532.80155357426088
 20
635.41955468220647
 30
0
 40
4.00000006547017
100
AcDbArc
 50
94.931791159261962
 51
139.9317903823148
  0
LINE
  5
4D6
330
1F
100
AcDbEntity
  8
0
 62
2
100
AcDbLine
 10
529.74043883168042
 20
637.99435118999452
 30
0
 11
527.36318829514869
 21
635.16809414702823
 31
0
  0
ARC
  5
4D7
330
1F
100
AcDbEntity
  8
0
 62
2
100
AcDbCircle
 10
525.832630909253
 20
636.45549227159029
 30
0
 40
1.99999996066156
100
AcDbArc
 50
184.99999728355033
 51
319.93179348707338
  0
LINE
  5
4D8
330
1F
100
AcDbEntity
  8
0
 62
2
100
AcDbLine
 10
523.8402415439939
 20
636.28118088398469
 30
0
 11
521.82230347494465
 21
659.34631855741509
 31
0
  0
ARC
  5
4D9
330
1F
100
AcDbEntity
  8
0
 62
2
100
AcDbCircle
 10
488.94787844372843
 20
656.47017905373161
 30
0
 40
32.9999999936015
100
AcDbArc
 50
4.9999999887905977
 51
95.000000011009163
  0
LINE
  5
4DA
330
1F
100
AcDbEntity
  8
0
 62
2
100
AcDbLine
 10
486.07173892729668
 20
689.34460408383245
 30
0
 11
485.274783168824
 21
689.27487948963574
 31
0
  0
ARC
  5
4DB
330
1F
100
AcDbEntity
  8
0
 62
2
100
AcDbCircle
 10
488.15092267697207
 20
656.400454454708
 30
0
 40
32.9999999976881
100
AcDbArc
 50
94.999999995951057
 51
184.13184891360467
  0
LINE
  5
4DC
330
1F
100
AcDbEntity
  8
0
 62
2
100
AcDbLine
 10
455.23669345239387
 20
654.0227424453725
 30
0
 11
456.30773126534052
 21
641.7372606952498
 31
0
  0
LINE
  5
4DD
330
1F
100
AcDbEntity
  8
0
 62
2
100
AcDbLine
 10
456.30773126534052
 20
641.7372606952498
 30
0
 11
453.58061439930259
 21
638.48720937273629
 31
0
  0
LINE
  5
4DE
330
1F
100
AcDbEntity
  8
0
 62
2
100
AcDbLine
 10
453.58061439930259
 20
638.48720937273629
 30
0
 11
456.02097519618837
 21
610.59375782616314
 31
0
  0
LINE
  5
4DF
330
1F
100
AcDbEntity
  8
0
 62
2
100
AcDbLine
 10
456.02097519618837
 20
610.59375782616314
 30
0
 11
487.89920553512911
 21
613.38274159403261
 31
0
  0
LINE
  5
4E0
330
1F
100
AcDbEntity
  8
0
 62
2
100
AcDbLine
 10
487.89920553512911
 20
613.38274159403261
 30
0
 11
485.45884473824333
 21
641.27619314060576
 31
0
  0
LINE
  5
4E1
330
1F
100
AcDbEntity
  8
0
 62
2
100
AcDbLine
 10
485.45884473824333
 20
641.27619314060576
 30
0
 11
482.20879341572993
 21
644.00331000664369
 31
0
  0
LINE
  5
4E2
330
1F
100
AcDbEntity
  8
0
 62
2
100
AcDbLine
 10
482.20879341572993
 20
644.00331000664369
 30
0
 11
481.15179386082696
 21
656.29001994520081
 31
0
  0
ARC
  5
4E3
330
1F
100
AcDbEntity
  8
0
 62
2
100
AcDbCircle
 10
488.15092270039747
 20
656.40045443370354
 30
0
 40
7.00000002065425
100
AcDbArc
 50
95.000000157309415
 51
180.9039560843639
  0
LINE
  5
4E4
330
1F
100
AcDbEntity
  8
0
 62
2
100
AcDbLine
 10
487.54083248021789
 20
663.37381733924644
 30
0
 11
488.33778823869056
 21
663.443541933443
 31
0
  0
ARC
  5
4E5
330
1F
100
AcDbEntity
  8
0
 62
2
100
AcDbCircle
 10
488.94787839778326
 20
656.470178998976
 30
0
 40
7.00000004414424
100
AcDbArc
 50
5.0000003612258741
 51
94.99999963857519
  0
LINE
  5
4E6
330
1F
100
AcDbEntity
  8
0
 62
2
100
AcDbLine
 10
495.92124132455524
 20
657.0802692460212
 30
0
 11
499.4102668929238
 21
617.20052451309459
 31
0
  0
ARC
  5
4E7
330
1F
100
AcDbEntity
  8
0
 62
2
100
AcDbCircle
 10
509.37221384824079
 20
618.07208191004236
 30
0
 40
9.99999997183605
100
AcDbArc
 50
184.99999983853237
 51
275.00000016126677
  0
LINE
  5
4E8
330
1F
100
AcDbEntity
  8
0
 62
2
100
AcDbLine
 10
510.243771301302
 20
608.11013495963471
 30
0
 11
529.31407160276012
 21
609.77857004601378
 31
0
  0
ARC
  5
4E9
330
1F
100
AcDbEntity
  8
0
 62
2
100
AcDbCircle
 10
507.36312904723309
 20
732.15372485198213
 30
0
 40
3.99999990846586
100
AcDbArc
 50
99.999999456742145
 51
145.00000054293145
  0
LINE
  5
4EA
330
1F
100
AcDbEntity
  8
0
 62
2
100
AcDbLine
 10
504.08652092331681
 20
734.44803051383553
 30
0
 11
499.671670814795
 21
728.142971131285
 31
0
  0
ARC
  5
4EB
330
1F
100
AcDbEntity
  8
0
 62
2
100
AcDbCircle
 10
498.033366574472
 20
729.2901242421708
 30
0
 40
2.00000026091883
100
AcDbArc
 50
280.00000309634834
 51
324.99999690398511
  0
LINE
  5
4EC
330
1F
100
AcDbEntity
  8
0
 62
2
100
AcDbLine
 10
498.38066308155487
 20
727.32050849795985
 30
0
 11
498.21169678380238
 21
727.29071518083572
 31
0
  0
LINE
  5
4ED
330
1F
100
AcDbEntity
  8
0
 62
2
100
AcDbLine
 10
498.21169678380238
 20
727.29071518083572
 30
0
 11
494.73632899176494
 21
729.72419390687151
 31
0
  0
LINE
  5
4EE
330
1F
100
AcDbEntity
  8
0
 62
2
100
AcDbLine
 10
494.73632899176494
 20
729.72419390687151
 30
0
 11
464.20728864838657
 21
724.34110039919676
 31
0
  0
LINE
  5
4EF
330
1F
100
AcDbEntity
  8
0
 62
2
100
AcDbLine
 10
464.20728864838657
 20
724.34110039919676
 30
0
 11
469.07628910256449
 21
696.7276266437068
 31
0
  0
LINE
  5
4F0
330
1F
100
AcDbEntity
  8
0
 62
2
100
AcDbLine
 10
469.07628910256449
 20
696.7276266437068
 30
0
 11
499.60532944594297
 21
702.11072015138166
 31
0
  0
LINE
  5
4F1
330
1F
100
AcDbEntity
  8
0
 62
2
100
AcDbLine
 10
499.60532944594297
 20
702.11072015138166
 30
0
 11
502.03837993053253
 21
705.58851662134759
 31
0
  0
LINE
  5
4F2
330
1F
100
AcDbEntity
  8
0
 62
2
100
AcDbLine
 10
502.03837993053253
 20
705.58851662134759
 30
0
 11
506.11898709997286
 21
706.30553357454255
 31
0
  0
ARC
  5
4F3
330
1F
100
AcDbEntity
  8
0
 62
2
100
AcDbCircle
 10
505.42908440090469
 20
710.24558875049888
 30
0
 40
4.00000006547017
100
AcDbArc
 50
279.93179115936181
 51
324.93179038241368
  0
LINE
  5
4F4
330
1F
100
AcDbEntity
  8
0
 62
2
100
AcDbLine
 10
508.70295897977815
 20
707.94738384980633
 30
0
 11
510.824838828526
 21
710.97007716766632
 31
0
  0
ARC
  5
4F5
330
1F
100
AcDbEntity
  8
0
 62
2
100
AcDbCircle
 10
512.46177612124063
 20
709.82097484743281
 30
0
 40
1.99999996066156
100
AcDbArc
 50
9.99999728364853
 51
144.93179348717251
  0
LINE
  5
4F6
330
1F
100
AcDbEntity
  8
0
 62
2
100
AcDbLine
 10
514.43139160498936
 20
710.16827110255758
 30
0
 11
518.45191001599835
 21
687.3667781327639
 31
0
  0
ARC
  5
4F7
330
1F
100
AcDbEntity
  8
0
 62
2
100
AcDbCircle
 10
550.9505658602111
 20
693.09716798836018
 30
0
 40
32.9999999936015
100
AcDbArc
 50
189.99999998889058
 51
280.00000001110931
  0
LINE
  5
4F8
330
1F
100
AcDbEntity
  8
0
 62
2
100
AcDbLine
 10
556.68095572841
 20
660.59851214636967
 30
0
 11
557.46880193081893
 21
660.73743068850308
 31
0
  0
ARC
  5
4F9
330
1F
100
AcDbEntity
  8
0
 62
2
100
AcDbCircle
 10
551.73841207045155
 20
693.23608653602412
 30
0
 40
32.9999999976881
100
AcDbArc
 50
279.99999999605109
 51
9.1318489137047969
  0
LINE
  5
4FA
330
1F
100
AcDbEntity
  8
0
 62
2
100
AcDbLine
 10
584.32016145952991
 20
698.47341472840492
 30
0
 11
582.1824489818506
 21
710.6187994152782
 31
0
  0
LINE
  5
4FB
330
1F
100
AcDbEntity
  8
0
 62
2
100
AcDbLine
 10
582.1824489818506
 20
710.6187994152782
 30
0
 11
584.6159277078865
 21
714.09416720731554
 31
0
  0
LINE
  5
4FC
330
1F
100
AcDbEntity
  8
0
 62
2
100
AcDbLine
 10
584.6159277078865
 20
714.09416720731554
 30
0
 11
579.75377873321247
 21
741.6687842916574
 31
0
  0
LINE
  5
4FD
330
1F
100
AcDbEntity
  8
0
 62
2
100
AcDbLine
 10
579.75377873321247
 20
741.6687842916574
 30
0
 11
548.23993063682178
 21
736.11204260631564
 31
0
  0
LINE
  5
4FE
330
1F
100
AcDbEntity
  8
0
 62
2
100
AcDbLine
 10
548.23993063682178
 20
736.11204260631564
 30
0
 11
553.10207961149581
 21
708.53742552197377
 31
0
  0
LINE
  5
4FF
330
1F
100
AcDbEntity
  8
0
 62
2
100
AcDbLine
 10
553.10207961149581
 20
708.53742552197377
 30
0
 11
556.57744740353326
 21
706.103946795938
 31
0
  0
LINE
  5
500
330
1F
100
AcDbEntity
  8
0
 62
2
100
AcDbLine
 10
556.57744740353326
 20
706.103946795938
 30
0
 11
558.701282086654
 21
693.95611507945137
 31
0
  0
ARC
  5
501
330
1F
100
AcDbEntity
  8
0
 62
2
100
AcDbCircle
 10
551.73841204528458
 20
693.236086554907
 30
0
 40
7.00000002065425
100
AcDbArc
 50
280.00000015740954
 51
5.9039560844634984
  0
LINE
  5
502
330
1F
100
AcDbEntity
  8
0
 62
2
100
AcDbLine
 10
552.95394931147871
 20
686.34243226682054
 30
0
 11
552.16610310906981
 21
686.20351372468713
 31
0
  0
ARC
  5
503
330
1F
100
AcDbEntity
  8
0
 62
2
100
AcDbCircle
 10
550.95056590120919
 20
693.09716804691175
 30
0
 40
7.00000004414424
100
AcDbArc
 50
190.00000036132627
 51
279.99999963867555
  0
LINE
  5
504
330
1F
100
AcDbEntity
  8
0
 62
2
100
AcDbLine
 10
544.05691159431581
 20
691.881630752104
 30
0
 11
537.10541404874641
 21
731.305532401409
 31
0
  0
ARC
  5
505
330
1F
100
AcDbEntity
  8
0
 62
2
100
AcDbCircle
 10
527.25733654146973
 20
729.56905065736635
 30
0
 40
9.99999997183605
100
AcDbArc
 50
9.99999983863254
 51
100.0000001613669
  0
LINE
  5
506
330
1F
100
AcDbEntity
  8
0
 62
2
100
AcDbLine
 10
525.52085474195508
 20
739.41712815486176
 30
0
 11
506.66853638981047
 21
736.09295578047329
 31
0
  0
ARC
  5
507
330
1F
100
AcDbEntity
  8
0
 62
2
100
AcDbCircle
 10
635.45932461917107
 20
701.80074474305013
 30
0
 40
3.99999990846586
100
AcDbArc
 50
24.99999945674233
 51
70.000000542931161
  0
LINE
  5
508
330
1F
100
AcDbEntity
  8
0
 62
2
100
AcDbLine
 10
636.82740512554938
 20
705.55951515314371
 30
0
 11
629.59453814229914
 21
708.19206344345355
 31
0
  0
ARC
  5
509
330
1F
100
AcDbEntity
  8
0
 62
2
100
AcDbCircle
 10
630.27857861974383
 20
710.07144889324627
 30
0
 40
2.00000026091883
100
AcDbArc
 50
205.00000309634831
 51
249.99999690398414
  0
LINE
  5
50A
330
1F
100
AcDbEntity
  8
0
 62
2
100
AcDbLine
 10
628.46596285487556
 20
709.22621216153937
 30
0
 11
628.39345302457571
 21
709.38170999442252
 31
0
  0
LINE
  5
50B
330
1F
100
AcDbEntity
  8
0
 62
2
100
AcDbLine
 10
628.39345302457571
 20
709.38170999442252
 30
0
 11
629.84452160046362
 21
713.36848814075449
 31
0
  0
LINE
  5
50C
330
1F
100
AcDbEntity
  8
0
 62
2
100
AcDbLine
 10
629.84452160046362
 20
713.36848814075449
 30
0
 11
616.74335548650186
 21
741.4640295388906
 31
0
  0
LINE
  5
50D
330
1F
100
AcDbEntity
  8
0
 62
2
100
AcDbLine
 10
616.74335548650186
 20
741.4640295388906
 30
0
 11
591.33097808067293
 21
729.6140433426275
 31
0
  0
LINE
  5
50E
330
1F
100
AcDbEntity
  8
0
 62
2
100
AcDbLine
 10
591.33097808067293
 20
729.6140433426275
 30
0
 11
604.43214419463459
 21
701.51850194449139
 31
0
  0
LINE
  5
50F
330
1F
100
AcDbEntity
  8
0
 62
2
100
AcDbLine
 10
604.43214419463459
 20
701.51850194449139
 30
0
 11
608.42115742665931
 21
700.06847560617871
 31
0
  0
LINE
  5
510
330
1F
100
AcDbEntity
  8
0
 62
2
100
AcDbLine
 10
608.42115742665931
 20
700.06847560617871
 30
0
 11
610.16988147067059
 21
696.3124893974242
 31
0
  0
ARC
  5
511
330
1F
100
AcDbEntity
  8
0
 62
2
100
AcDbCircle
 10
613.79712256434414
 20
697.99864555037288
 30
0
 40
4.00000006547017
100
AcDbArc
 50
204.93179115936172
 51
249.93179038241439
  0
LINE
  5
512
330
1F
100
AcDbEntity
  8
0
 62
2
100
AcDbLine
 10
612.42456818895062
 20
694.24150634476064
 30
0
 11
615.893448645898
 21
692.974258396739
 31
0
  0
ARC
  5
513
330
1F
100
AcDbEntity
  8
0
 62
2
100
AcDbCircle
 10
615.20717158472894
 20
691.09568882444228
 30
0
 40
1.99999996066156
100
AcDbArc
 50
294.999997283651
 51
69.931793487173309
  0
LINE
  5
514
330
1F
100
AcDbEntity
  8
0
 62
2
100
AcDbLine
 10
616.05240800565048
 20
689.28307324594971
 30
0
 11
595.06844380413258
 21
679.49809004033148
 31
0
  0
ARC
  5
515
330
1F
100
AcDbEntity
  8
0
 62
2
100
AcDbCircle
 10
609.01484643307253
 20
649.58993307121693
 30
0
 40
32.9999999936015
100
AcDbArc
 50
114.99999998889072
 51
205.00000001110925
  0
LINE
  5
516
330
1F
100
AcDbEntity
  8
0
 62
2
100
AcDbLine
 10
579.10668946936619
 20
635.643530430679
 30
0
 11
579.4447840787584
 21
634.91848420105032
 31
0
  0
ARC
  5
517
330
1F
100
AcDbEntity
  8
0
 62
2
100
AcDbCircle
 10
609.35294104983382
 20
648.86488683545508
 30
0
 40
32.9999999976881
100
AcDbArc
 50
204.99999999605112
 51
294.13184891370457
  0
LINE
  5
518
330
1F
100
AcDbEntity
  8
0
 62
2
100
AcDbLine
 10
622.844588876257
 20
618.74885391650673
 30
0
 11
634.022848913347
 21
623.95718247493687
 31
0
  0
LINE
  5
519
330
1F
100
AcDbEntity
  8
0
 62
2
100
AcDbLine
 10
634.022848913347
 20
623.95718247493687
 30
0
 11
638.00962705967913
 21
622.506113899049
 31
0
  0
LINE
  5
51A
330
1F
100
AcDbEntity
  8
0
 62
2
100
AcDbLine
 10
638.00962705967913
 20
622.506113899049
 30
0
 11
663.38624509670535
 21
634.33942522778852
 31
0
  0
LINE
  5
51B
330
1F
100
AcDbEntity
  8
0
 62
2
100
AcDbLine
 10
663.38624509670535
 20
634.33942522778852
 30
0
 11
649.86246072100289
 21
663.34127441296141
 31
0
  0
LINE
  5
51C
330
1F
100
AcDbEntity
  8
0
 62
2
100
AcDbLine
 10
649.86246072100289
 20
663.34127441296141
 30
0
 11
624.48584268397667
 21
651.50796308422173
 31
0
  0
LINE
  5
51D
330
1F
100
AcDbEntity
  8
0
 62
2
100
AcDbLine
 10
624.48584268397667
 20
651.50796308422173
 30
0
 11
623.03477410808887
 21
647.52118493788976
 31
0
  0
LINE
  5
51E
330
1F
100
AcDbEntity
  8
0
 62
2
100
AcDbLine
 10
623.03477410808887
 20
647.52118493788976
 30
0
 11
611.85055858436192
 21
642.32562796176762
 31
0
  0
ARC
  5
51F
330
1F
100
AcDbEntity
  8
0
 62
2
100
AcDbCircle
 10
609.35294106155948
 20
648.86488686465179
 30
0
 40
7.00000002065425
100
AcDbArc
 50
205.00000015741065
 51
290.90395608446374
  0
LINE
  5
520
330
1F
100
AcDbEntity
  8
0
 62
2
100
AcDbLine
 10
603.00878654171129
 20
645.9065590063085
 30
0
 11
602.67069193231907
 21
646.63160523593717
 31
0
  0
ARC
  5
521
330
1F
100
AcDbEntity
  8
0
 62
2
100
AcDbCircle
 10
609.01484650024008
 20
649.58993304676994
 30
0
 40
7.00000004414424
100
AcDbArc
 50
115.00000036132549
 51
204.99999963867424
  0
LINE
  5
522
330
1F
100
AcDbEntity
  8
0
 62
2
100
AcDbLine
 10
606.05651860939076
 20
655.93408757737859
 30
0
 11
642.33790342875773
 21
672.85237516711788
 31
0
  0
ARC
  5
523
330
1F
100
AcDbEntity
  8
0
 62
2
100
AcDbCircle
 10
638.11172084877853
 20
681.9154530238618
 30
0
 40
9.99999997183605
100
AcDbArc
 50
294.99999983863239
 51
25.000000161367485
  0
LINE
  5
524
330
1F
100
AcDbEntity
  8
0
 62
2
100
AcDbLine
 10
647.17479868171722
 20
686.14163565489139
 30
0
 11
639.084555700388
 21
703.49121771695582
 31
0
  0
ARC
  5
525
330
1F
100
AcDbEntity
  8
0
 62
2
100
AcDbCircle
 10
687.50092765597185
 20
718.18122248157988
 30
0
 40
3.99999990846586
100
AcDbArc
 50
59.9999994567429
 51
105.00000054293189
  0
LINE
  5
526
330
1F
100
AcDbEntity
  8
0
 62
2
100
AcDbLine
 10
686.46565146264027
 20
722.04492568851083
 30
0
 11
679.03086602036262
 21
720.0527809333538
 31
0
  0
ARC
  5
527
330
1F
100
AcDbEntity
  8
0
 62
2
100
AcDbCircle
 10
678.51322796701572
 20
721.98463286593108
 30
0
 40
2.00000026091883
100
AcDbArc
 50
240.00000309634578
 51
284.99999690398454
  0
LINE
  5
528
330
1F
100
AcDbEntity
  8
0
 62
2
100
AcDbLine
 10
677.51322793015879
 20
720.25258177835838
 30
0
 11
677.36464146159221
 21
720.33836821598322
 31
0
  0
LINE
  5
529
330
1F
100
AcDbEntity
  8
0
 62
2
100
AcDbLine
 10
677.36464146159221
 20
720.33836821598322
 30
0
 11
676.266565250239
 21
724.4364444273366
 31
0
  0
LINE
  5
52A
330
1F
100
AcDbEntity
  8
0
 62
2
100
AcDbLine
 10
676.266565250239
 20
724.4364444273366
 30
0
 11
649.41977773292137
 21
739.9364444273366
 31
0
  0
LINE
  5
52B
330
1F
100
AcDbEntity
  8
0
 62
2
100
AcDbLine
 10
649.41977773292137
 20
739.9364444273366
 30
0
 11
635.40004968395488
 21
715.653563138228
 31
0
  0
LINE
  5
52C
330
1F
100
AcDbEntity
  8
0
 62
2
100
AcDbLine
 10
635.40004968395488
 20
715.653563138228
 30
0
 11
662.24683720127246
 21
700.153563138228
 31
0
  0
LINE
  5
52D
330
1F
100
AcDbEntity
  8
0
 62
2
100
AcDbLine
 10
662.24683720127246
 20
700.153563138228
 30
0
 11
666.34614648472586
 21
701.25377509310829
 31
0
  0
LINE
  5
52E
330
1F
100
AcDbEntity
  8
0
 62
2
100
AcDbLine
 10
666.34614648472586
 20
701.25377509310829
 30
0
 11
669.93296254487609
 21
699.18007821721108
 31
0
  0
ARC
  5
52F
330
1F
100
AcDbEntity
  8
0
 62
2
100
AcDbCircle
 10
671.93708506454811
 20
702.64179649718494
 30
0
 40
4.00000006547017
100
AcDbArc
 50
239.93179115936286
 51
284.93179038241396
  0
LINE
  5
530
330
1F
100
AcDbEntity
  8
0
 62
2
100
AcDbLine
 10
672.96776085847659
 20
698.77686338889293
 30
0
 11
676.53616493817867
 21
699.72846273227378
 31
0
  0
ARC
  5
531
330
1F
100
AcDbEntity
  8
0
 62
2
100
AcDbCircle
 10
677.05150292128883
 20
697.79599627569291
 30
0
 40
1.99999996066156
100
AcDbArc
 50
329.99999728364958
 51
104.93179348717364
  0
LINE
  5
532
330
1F
100
AcDbEntity
  8
0
 62
2
100
AcDbLine
 10
678.78355364738036
 20
696.79599621324689
 30
0
 11
667.20693227125321
 21
676.74469980980678
 31
0
  0
ARC
  5
533
330
1F
100
AcDbEntity
  8
0
 62
2
100
AcDbCircle
 10
695.78577058739927
 20
660.24469980746471
 30
0
 40
32.9999999936015
100
AcDbArc
 50
149.99999998889072
 51
240.00000001110917
  0
LINE
  5
534
330
1F
100
AcDbEntity
  8
0
 62
2
100
AcDbLine
 10
679.28577059613974
 20
631.66586148492036
 30
0
 11
679.97859091916655
 21
631.26586148492072
 31
0
  0
ARC
  5
535
330
1F
100
AcDbEntity
  8
0
 62
2
100
AcDbCircle
 10
696.47859091998032
 20
659.84469980666779
 30
0
 40
32.9999999976881
100
AcDbArc
 50
239.999999996051
 51
329.1318489137048
  0
LINE
  5
536
330
1F
100
AcDbEntity
  8
0
 62
2
100
AcDbLine
 10
724.80414865650346
 20
642.91358115601986
 30
0
 11
730.97346868358989
 21
653.591580698666
 31
0
  0
LINE
  5
537
330
1F
100
AcDbEntity
  8
0
 62
2
100
AcDbLine
 10
730.97346868358989
 20
653.591580698666
 30
0
 11
735.07154489494314
 21
654.68965691001938
 31
0
  0
LINE
  5
538
330
1F
100
AcDbEntity
  8
0
 62
2
100
AcDbLine
 10
735.07154489494314
 20
654.68965691001938
 30
0
 11
749.07154489494314
 21
678.9383682159837
 31
0
  0
LINE
  5
539
330
1F
100
AcDbEntity
  8
0
 62
2
100
AcDbLine
 10
749.07154489494314
 20
678.9383682159837
 30
0
 11
721.35873197384115
 21
694.9383682159837
 31
0
  0
LINE
  5
53A
330
1F
100
AcDbEntity
  8
0
 62
2
100
AcDbLine
 10
721.35873197384115
 20
694.9383682159837
 30
0
 11
707.35873197384115
 21
670.68965691001938
 31
0
  0
LINE
  5
53B
330
1F
100
AcDbEntity
  8
0
 62
2
100
AcDbLine
 10
707.35873197384115
 20
670.68965691001938
 30
0
 11
708.4568081851944
 21
666.591580698666
 31
0
  0
LINE
  5
53C
330
1F
100
AcDbEntity
  8
0
 62
2
100
AcDbLine
 10
708.4568081851944
 20
666.591580698666
 30
0
 11
702.2752842303878
 21
655.92062709697439
 31
0
  0
ARC
  5
53D
330
1F
100
AcDbEntity
  8
0
 62
2
100
AcDbCircle
 10
696.478590912839
 20
659.84469983730992
 30
0
 40
7.00000002065425
100
AcDbArc
 50
240.00000015740972
 51
325.90395608446448
  0
LINE
  5
53E
330
1F
100
AcDbEntity
  8
0
 62
2
100
AcDbLine
 10
692.97859091916655
 20
653.78252198331609
 30
0
 11
692.28577059613974
 21
654.18252198331572
 31
0
  0
ARC
  5
53F
330
1F
100
AcDbEntity
  8
0
 62
2
100
AcDbCircle
 10
695.78577065644185
 20
660.24469982596474
 30
0
 40
7.00000004414424
100
AcDbArc
 50
150.00000036132568
 51
239.99999963867486
  0
LINE
  5
540
330
1F
100
AcDbEntity
  8
0
 62
2
100
AcDbLine
 10
689.72359276964869
 20
663.74469980980678
 30
0
 11
709.739632209184
 21
698.41349708538428
 31
0
  0
ARC
  5
541
330
1F
100
AcDbEntity
  8
0
 62
2
100
AcDbCircle
 10
701.07937820981226
 20
703.41349709569306
 30
0
 40
9.99999997183605
100
AcDbArc
 50
329.99999983863233
 51
60.000000161367375
  0
LINE
  5
542
330
1F
100
AcDbEntity
  8
0
 62
2
100
AcDbLine
 10
706.07937817133961
 20
712.0737511232287
 30
0
 11
689.50092764305009
 21
721.64532399848349
 31
0
  0
ARC
  5
543
330
1F
100
AcDbEntity
  8
0
 62
2
100
AcDbCircle
 10
786.05883310499394
 20
638.62230186304373
 30
0
 40
3.99999990846586
100
AcDbArc
 50
359.99999945674296
 51
45.000000542931531
  0
LINE
  5
544
330
1F
100
AcDbEntity
  8
0
 62
2
100
AcDbLine
 10
788.88726013821372
 20
641.45072894986754
 30
0
 11
783.444619451093
 21
646.89336963698827
 31
0
  0
ARC
  5
545
330
1F
100
AcDbEntity
  8
0
 62
2
100
AcDbCircle
 10
784.8588332743816
 20
648.30758330744084
 30
0
 40
2.00000026091883
100
AcDbArc
 50
180.00000309634581
 51
224.99999690398289
  0
LINE
  5
546
330
1F
100
AcDbEntity
  8
0
 62
2
100
AcDbLine
 10
782.85883301346269
 20
648.307583199358
 30
0
 11
782.85883301346269
 21
648.47915607460766
 31
0
  0
LINE
  5
547
330
1F
100
AcDbEntity
  8
0
 62
2
100
AcDbLine
 10
782.85883301346269
 20
648.47915607460766
 30
0
 11
785.85883301346269
 21
651.47915607460766
 31
0
  0
LINE
  5
548
330
1F
100
AcDbEntity
  8
0
 62
2
100
AcDbLine
 10
785.85883301346269
 20
651.47915607460766
 30
0
 11
785.85883301346269
 21
682.47915607460766
 31
0
  0
LINE
  5
549
330
1F
100
AcDbEntity
  8
0
 62
2
100
AcDbLine
 10
785.85883301346269
 20
682.47915607460766
 30
0
 11
757.81937691552969
 21
682.47915607460766
 31
0
  0
LINE
  5
54A
330
1F
100
AcDbEntity
  8
0
 62
2
100
AcDbLine
 10
757.81937691552969
 20
682.47915607460766
 30
0
 11
757.81937691552969
 21
651.47915607460766
 31
0
  0
LINE
  5
54B
330
1F
100
AcDbEntity
  8
0
 62
2
100
AcDbLine
 10
757.81937691552969
 20
651.47915607460766
 30
0
 11
760.82184305973
 21
648.47915607460766
 31
0
  0
LINE
  5
54C
330
1F
100
AcDbEntity
  8
0
 62
2
100
AcDbLine
 10
760.82184305973
 20
648.47915607460766
 30
0
 11
760.81937691552969
 21
644.336033809867
 31
0
  0
ARC
  5
54D
330
1F
100
AcDbEntity
  8
0
 62
2
100
AcDbCircle
 10
764.819374146568
 20
644.33127193552139
 30
0
 40
4.00000006547017
100
AcDbArc
 50
179.93179115936164
 51
224.93179038241519
  0
LINE
  5
54E
330
1F
100
AcDbEntity
  8
0
 62
2
100
AcDbLine
 10
761.987581787824
 20
641.5062139607677
 30
0
 11
764.5958930332672
 21
638.891685048468
 31
0
  0
ARC
  5
54F
330
1F
100
AcDbEntity
  8
0
 62
2
100
AcDbCircle
 10
763.17999698146207
 20
637.47915603526917
 30
0
 40
1.99999996066156
100
AcDbArc
 50
269.99999728364787
 51
44.931793487176236
  0
LINE
  5
550
330
1F
100
AcDbEntity
  8
0
 62
2
100
AcDbLine
 10
763.17999688664349
 20
635.47915607460766
 30
0
 11
740.02675413438931
 21
635.47915607460766
 31
0
  0
ARC
  5
551
330
1F
100
AcDbEntity
  8
0
 62
2
100
AcDbCircle
 10
740.02675412799078
 20
602.47915608100618
 30
0
 40
32.9999999936015
100
AcDbArc
 50
89.999999988890664
 51
180.00000001110934
  0
LINE
  5
552
330
1F
100
AcDbEntity
  8
0
 62
2
100
AcDbLine
 10
707.02675413438931
 20
602.47915607460766
 30
0
 11
707.02675413438931
 21
601.67915607460839
 31
0
  0
ARC
  5
553
330
1F
100
AcDbEntity
  8
0
 62
2
100
AcDbCircle
 10
740.02675413207737
 20
601.67915607233408
 30
0
 40
32.9999999976881
100
AcDbArc
 50
179.99999999605129
 51
269.13184891370474
  0
LINE
  5
554
330
1F
100
AcDbEntity
  8
0
 62
2
100
AcDbLine
 10
739.52675413438931
 20
568.68294417081836
 30
0
 11
751.85883301346269
 21
568.67915607460839
 31
0
  0
LINE
  5
555
330
1F
100
AcDbEntity
  8
0
 62
2
100
AcDbLine
 10
751.85883301346269
 20
568.67915607460839
 30
0
 11
754.85883301346269
 21
565.67915607460839
 31
0
  0
LINE
  5
556
330
1F
100
AcDbEntity
  8
0
 62
2
100
AcDbLine
 10
754.85883301346269
 20
565.67915607460839
 30
0
 11
782.85883301346269
 21
565.67915607460839
 31
0
  0
LINE
  5
557
330
1F
100
AcDbEntity
  8
0
 62
2
100
AcDbLine
 10
782.85883301346269
 20
565.67915607460839
 30
0
 11
782.85883301346269
 21
597.67915607460839
 31
0
  0
LINE
  5
558
330
1F
100
AcDbEntity
  8
0
 62
2
100
AcDbLine
 10
782.85883301346269
 20
597.67915607460839
 30
0
 11
754.85883301346269
 21
597.67915607460839
 31
0
  0
LINE
  5
559
330
1F
100
AcDbEntity
  8
0
 62
2
100
AcDbLine
 10
754.85883301346269
 20
597.67915607460839
 30
0
 11
751.85883301346269
 21
594.67915607460839
 31
0
  0
LINE
  5
55A
330
1F
100
AcDbEntity
  8
0
 62
2
100
AcDbLine
 10
751.85883301346269
 20
594.67915607460839
 30
0
 11
739.52675413438931
 21
594.69703605272719
 31
0
  0
ARC
  5
55B
330
1F
100
AcDbEntity
  8
0
 62
2
100
AcDbCircle
 10
740.02675415504359
 20
601.67915609383977
 30
0
 40
7.00000002065425
100
AcDbArc
 50
180.00000015741097
 51
265.90395608446357
  0
LINE
  5
55C
330
1F
100
AcDbEntity
  8
0
 62
2
100
AcDbLine
 10
733.02675413438931
 20
601.67915607460839
 30
0
 11
733.02675413438931
 21
602.47915607460766
 31
0
  0
ARC
  5
55D
330
1F
100
AcDbEntity
  8
0
 62
2
100
AcDbCircle
 10
740.02675417853357
 20
602.4791560304634
 30
0
 40
7.00000004414424
100
AcDbArc
 50
90.000000361325661
 51
179.99999963867432
  0
LINE
  5
55E
330
1F
100
AcDbEntity
  8
0
 62
2
100
AcDbLine
 10
740.02675413438931
 20
609.47915607460766
 30
0
 11
780.05883301345978
 21
609.47915607460766
 31
0
  0
ARC
  5
55F
330
1F
100
AcDbEntity
  8
0
 62
2
100
AcDbCircle
 10
780.05883304162376
 20
619.47915604644368
 30
0
 40
9.99999997183605
100
AcDbArc
 50
269.99999983863228
 51
1.6136772712901046E-07
  0
LINE
  5
560
330
1F
100
AcDbEntity
  8
0
 62
2
100
AcDbLine
 10
790.05883301345978
 20
619.47915607460766
 30
0
 11
790.05883301345978
 21
638.62230182511723
 31
0
  0
ARC
  5
561
330
1F
100
AcDbEntity
  8
0
 62
2
100
AcDbCircle
 10
708.09027584429168
 20
532.16909788689838
 30
0
 40
3.99999990846586
100
AcDbArc
 50
269.99999945664035
 51
315.00000054283021
  0
LINE
  5
562
330
1F
100
AcDbEntity
  8
0
 62
2
100
AcDbLine
 10
710.91870293111037
 20
529.34067085367371
 30
0
 11
716.36134361824065
 21
534.78331154078489
 31
0
  0
ARC
  5
563
330
1F
100
AcDbEntity
  8
0
 62
2
100
AcDbCircle
 10
717.77555728869083
 20
533.3690977174939
 30
0
 40
2.00000026091883
100
AcDbArc
 50
90.000003096248108
 51
134.99999690388617
  0
LINE
  5
564
330
1F
100
AcDbEntity
  8
0
 62
2
100
AcDbLine
 10
717.77555718061137
 20
535.3690979784127
 30
0
 11
717.94713005586107
 21
535.36909797841247
 31
0
  0
LINE
  5
565
330
1F
100
AcDbEntity
  8
0
 62
2
100
AcDbLine
 10
717.94713005586107
 20
535.36909797841247
 30
0
 11
720.94713005585572
 21
532.36909797840724
 31
0
  0
LINE
  5
566
330
1F
100
AcDbEntity
  8
0
 62
2
100
AcDbLine
 10
720.94713005585572
 20
532.36909797840724
 30
0
 11
751.94713005585584
 21
532.36909797835312
 31
0
  0
LINE
  5
567
330
1F
100
AcDbEntity
  8
0
 62
2
100
AcDbLine
 10
751.94713005585584
 20
532.36909797835312
 30
0
 11
751.94713005590472
 21
560.40855407628612
 31
0
  0
LINE
  5
568
330
1F
100
AcDbEntity
  8
0
 62
2
100
AcDbLine
 10
751.94713005590472
 20
560.40855407628612
 30
0
 11
720.94713005590472
 21
560.40855407634024
 31
0
  0
LINE
  5
569
330
1F
100
AcDbEntity
  8
0
 62
2
100
AcDbLine
 10
720.94713005590472
 20
560.40855407634024
 30
0
 11
717.94713005589961
 21
557.40608793214517
 31
0
  0
LINE
  5
56A
330
1F
100
AcDbEntity
  8
0
 62
2
100
AcDbLine
 10
717.94713005589961
 20
557.40608793214517
 30
0
 11
713.80400779115894
 21
557.40855407635263
 31
0
  0
ARC
  5
56B
330
1F
100
AcDbEntity
  8
0
 62
2
100
AcDbCircle
 10
713.79924591680629
 20
553.40855684531437
 30
0
 40
4.00000006547017
100
AcDbArc
 50
89.931791159260655
 51
134.93179038231386
  0
LINE
  5
56C
330
1F
100
AcDbEntity
  8
0
 62
2
100
AcDbLine
 10
710.9741879420576
 20
556.24034920406336
 30
0
 11
708.3596590297534
 21
553.63203795862455
 31
0
  0
ARC
  5
56D
330
1F
100
AcDbEntity
  8
0
 62
2
100
AcDbCircle
 10
706.94713001655691
 20
555.0479340104323
 30
0
 40
1.99999996066156
100
AcDbArc
 50
179.99999728355019
 51
314.93179348707491
  0
LINE
  5
56E
330
1F
100
AcDbEntity
  8
0
 62
2
100
AcDbLine
 10
704.9471300558954
 20
555.04793410525428
 30
0
 11
704.94713005593576
 21
578.20117685750847
 31
0
  0
ARC
  5
56F
330
1F
100
AcDbEntity
  8
0
 62
2
100
AcDbCircle
 10
671.94713006233417
 20
578.20117686396463
 30
0
 40
32.9999999936015
100
AcDbArc
 50
359.99999998879059
 51
90.000000011009277
  0
LINE
  5
570
330
1F
100
AcDbEntity
  8
0
 62
2
100
AcDbLine
 10
671.94713005599328
 20
611.20117685756611
 30
0
 11
671.14713005599413
 21
611.20117685756759
 31
0
  0
ARC
  5
571
330
1F
100
AcDbEntity
  8
0
 62
2
100
AcDbCircle
 10
671.14713005366207
 20
578.20117685987941
 30
0
 40
32.9999999976881
100
AcDbArc
 50
89.999999995951
 51
179.1318489136047
  0
LINE
  5
572
330
1F
100
AcDbEntity
  8
0
 62
2
100
AcDbLine
 10
638.15091815214726
 20
578.70117685762511
 30
0
 11
638.1471300559158
 21
566.36909797855174
 31
0
  0
LINE
  5
573
330
1F
100
AcDbEntity
  8
0
 62
2
100
AcDbLine
 10
638.1471300559158
 20
566.36909797855174
 30
0
 11
635.14713005591057
 21
563.369097978557
 31
0
  0
LINE
  5
574
330
1F
100
AcDbEntity
  8
0
 62
2
100
AcDbLine
 10
635.14713005591057
 20
563.369097978557
 30
0
 11
635.14713005586168
 21
535.369097978557
 31
0
  0
LINE
  5
575
330
1F
100
AcDbEntity
  8
0
 62
2
100
AcDbLine
 10
635.14713005586168
 20
535.369097978557
 30
0
 11
667.14713005586179
 21
535.36909797850115
 31
0
  0
LINE
  5
576
330
1F
100
AcDbEntity
  8
0
 62
2
100
AcDbLine
 10
667.14713005586179
 20
535.36909797850115
 30
0
 11
667.14713005591057
 21
563.36909797850115
 31
0
  0
LINE
  5
577
330
1F
100
AcDbEntity
  8
0
 62
2
100
AcDbLine
 10
667.14713005591057
 20
563.36909797850115
 30
0
 11
664.1471300559158
 21
566.36909797850637
 31
0
  0
LINE
  5
578
330
1F
100
AcDbEntity
  8
0
 62
2
100
AcDbLine
 10
664.1471300559158
 20
566.36909797850637
 30
0
 11
664.16501003405619
 21
578.70117685757975
 31
0
  0
ARC
  5
579
330
1F
100
AcDbEntity
  8
0
 62
2
100
AcDbCircle
 10
671.14713007516775
 20
578.20117683691319
 30
0
 40
7.00000002065425
100
AcDbArc
 50
90.000000157309557
 51
175.90395608436279
  0
LINE
  5
57A
330
1F
100
AcDbEntity
  8
0
 62
2
100
AcDbLine
 10
671.14713005594876
 20
585.20117685756748
 30
0
 11
671.94713005594792
 21
585.20117685756611
 31
0
  0
ARC
  5
57B
330
1F
100
AcDbEntity
  8
0
 62
2
100
AcDbCircle
 10
671.9471300117915
 20
578.20117681342185
 30
0
 40
7.00000004414424
100
AcDbArc
 50
3.6122609781355708E-07
 51
89.999999638574764
  0
LINE
  5
57C
330
1F
100
AcDbEntity
  8
0
 62
2
100
AcDbLine
 10
678.94713005593565
 20
578.201176857554
 30
0
 11
678.94713005586584
 21
538.16909797848336
 31
0
  0
ARC
  5
57D
330
1F
100
AcDbEntity
  8
0
 62
2
100
AcDbCircle
 10
688.947130027702
 20
538.169097950302
 30
0
 40
9.99999997183605
100
AcDbArc
 50
179.99999983853263
 51
270.00000016126677
  0
LINE
  5
57E
330
1F
100
AcDbEntity
  8
0
 62
2
100
AcDbLine
 10
688.94713005584833
 20
528.169097978466
 30
0
 11
708.090275806358
 21
528.16909797843255
 31
0
  0
ARC
  5
57F
330
1F
100
AcDbEntity
  8
0
 62
2
100
AcDbCircle
 10
98.826378535050935
 20
443.72693869966986
 30
0
 40
3.99999990846586
100
AcDbArc
 50
174.99999945674173
 51
220.00000054293142
  0
LINE
  5
580
330
1F
100
AcDbEntity
  8
0
 62
2
100
AcDbLine
 10
95.76220085705836
 20
441.15578829072479
 30
0
 11
100.70977326159186
 21
435.25950110300209
 31
0
  0
ARC
  5
581
330
1F
100
AcDbEntity
  8
0
 62
2
100
AcDbCircle
 10
99.177684106011611
 20
433.97392579870103
 30
0
 40
2.00000026091883
100
AcDbArc
 50
355.00000309634709
 51
39.999996903986272
  0
LINE
  5
582
330
1F
100
AcDbEntity
  8
0
 62
2
100
AcDbLine
 10
101.17007377154096
 20
433.79961439813678
 30
0
 11
101.15512021016343
 21
433.62869440947668
 31
0
  0
LINE
  5
583
330
1F
100
AcDbEntity
  8
0
 62
2
100
AcDbLine
 10
101.15512021016343
 20
433.62869440947668
 30
0
 11
97.905068887645029
 21
430.90157754344443
 31
0
  0
LINE
  5
584
330
1F
100
AcDbEntity
  8
0
 62
2
100
AcDbLine
 10
97.905068887645029
 20
430.90157754344443
 30
0
 11
95.203240862467737
 21
400.01954190260034
 31
0
  0
LINE
  5
585
330
1F
100
AcDbEntity
  8
0
 62
2
100
AcDbLine
 10
95.203240862467737
 20
400.01954190260034
 30
0
 11
123.1359983646048
 21
397.57574228014465
 31
0
  0
LINE
  5
586
330
1F
100
AcDbEntity
  8
0
 62
2
100
AcDbLine
 10
123.1359983646048
 20
397.57574228014465
 30
0
 11
125.83782638978232
 21
428.45777792098875
 31
0
  0
LINE
  5
587
330
1F
100
AcDbEntity
  8
0
 62
2
100
AcDbLine
 10
125.83782638978232
 20
428.45777792098875
 30
0
 11
123.10825276397281
 21
431.7080441821364
 31
0
  0
LINE
  5
588
330
1F
100
AcDbEntity
  8
0
 62
2
100
AcDbLine
 10
123.10825276397281
 20
431.7080441821364
 30
0
 11
123.47180642202784
 21
435.83518567718744
 31
0
  0
ARC
  5
589
330
1F
100
AcDbEntity
  8
0
 62
2
100
AcDbCircle
 10
119.4874454127812
 20
436.18855216082318
 30
0
 40
4.00000006547017
100
AcDbArc
 50
354.93179115936243
 51
39.931790382413432
  0
LINE
  5
58A
330
1F
100
AcDbEntity
  8
0
 62
2
100
AcDbLine
 10
122.55468197275377
 20
438.75605297074117
 30
0
 11
120.1841673483566
 21
441.58796211509537
 31
0
  0
ARC
  5
58B
330
1F
100
AcDbEntity
  8
0
 62
2
100
AcDbCircle
 10
121.717785503512
 20
442.87171255689623
 30
0
 40
1.99999996066156
100
AcDbArc
 50
84.999997283652135
 51
219.93179348717217
  0
LINE
  5
58C
330
1F
100
AcDbEntity
  8
0
 62
2
100
AcDbLine
 10
121.89209708003636
 20
444.864101905627
 30
0
 11
144.95723475346335
 21
442.84616383653747
 31
0
  0
ARC
  5
58D
330
1F
100
AcDbEntity
  8
0
 62
2
100
AcDbCircle
 10
147.8333742699524
 20
475.72058886663325
 30
0
 40
32.9999999936015
100
AcDbArc
 50
264.999999988891
 51
355.00000001110936
  0
LINE
  5
58E
330
1F
100
AcDbEntity
  8
0
 62
2
100
AcDbLine
 10
180.7077993011635
 20
472.84444936289236
 30
0
 11
180.77752389536158
 21
473.64140512136493
 31
0
  0
ARC
  5
58F
330
1F
100
AcDbEntity
  8
0
 62
2
100
AcDbCircle
 10
147.90309886083537
 20
476.51754463410191
 30
0
 40
32.9999999976881
100
AcDbArc
 50
354.99999999605109
 51
84.131848913704772
  0
LINE
  5
590
330
1F
100
AcDbEntity
  8
0
 62
2
100
AcDbLine
 10
151.27700556371383
 20
509.34461811633128
 30
0
 11
138.9921841222706
 21
510.42320329201976
 31
0
  0
LINE
  5
591
330
1F
100
AcDbEntity
  8
0
 62
2
100
AcDbLine
 10
138.9921841222706
 20
510.42320329201976
 30
0
 11
136.26506725623813
 21
513.67325461453811
 31
0
  0
LINE
  5
592
330
1F
100
AcDbEntity
  8
0
 62
2
100
AcDbLine
 10
136.26506725623813
 20
513.67325461453811
 30
0
 11
108.37161570966941
 21
516.11361541147255
 31
0
  0
LINE
  5
593
330
1F
100
AcDbEntity
  8
0
 62
2
100
AcDbLine
 10
108.37161570966941
 20
516.11361541147255
 30
0
 11
105.58263194174424
 21
484.23538507253659
 31
0
  0
LINE
  5
594
330
1F
100
AcDbEntity
  8
0
 62
2
100
AcDbLine
 10
105.58263194174424
 20
484.23538507253659
 30
0
 11
133.47608348831318
 21
481.79502427560215
 31
0
  0
LINE
  5
595
330
1F
100
AcDbEntity
  8
0
 62
2
100
AcDbLine
 10
133.47608348831318
 20
481.79502427560215
 30
0
 11
136.72613481083135
 21
484.52214114163439
 31
0
  0
LINE
  5
596
330
1F
100
AcDbEntity
  8
0
 62
2
100
AcDbLine
 10
136.72613481083135
 20
484.52214114163439
 30
0
 11
149.00972806384016
 21
483.42951770790211
 31
0
  0
ARC
  5
597
330
1F
100
AcDbEntity
  8
0
 62
2
100
AcDbCircle
 10
147.90309883608211
 20
476.51754461467971
 30
0
 40
7.00000002065425
100
AcDbArc
 50
355.00000015741023
 51
80.903956084463388
  0
LINE
  5
598
330
1F
100
AcDbEntity
  8
0
 62
2
100
AcDbLine
 10
154.87646174497627
 20
475.90745443280406
 30
0
 11
154.80673715077819
 21
475.1104986743315
 31
0
  0
ARC
  5
599
330
1F
100
AcDbEntity
  8
0
 62
2
100
AcDbCircle
 10
147.833374224007
 20
475.7205889213887
 30
0
 40
7.00000004414424
100
AcDbArc
 50
265.00000036132661
 51
354.99999963867532
  0
LINE
  5
59A
330
1F
100
AcDbEntity
  8
0
 62
2
100
AcDbLine
 10
147.22328406490237
 20
468.74722598692284
 30
0
 11
107.3435393319819
 21
472.23625155536109
 31
0
  0
ARC
  5
59B
330
1F
100
AcDbEntity
  8
0
 62
2
100
AcDbCircle
 10
106.47198187890308
 20
462.274304604955
 30
0
 40
9.99999997183605
100
AcDbArc
 50
84.999999838631851
 51
175.00000016136724
  0
LINE
  5
59C
330
1F
100
AcDbEntity
  8
0
 62
2
100
AcDbLine
 10
96.510034923587682
 20
463.14586200192019
 30
0
 11
94.841599837175409
 21
444.075561700465
 31
0
  0
ARC
  5
59D
330
1F
100
AcDbEntity
  8
0
 62
2
100
AcDbCircle
 10
1085.7770007317959
 20
1008.523671426403
 30
0
 40
3.99999990846586
100
AcDbArc
 50
7.7296601592428118
 51
52.729661245431828
  0
LINE
  5
59E
330
1F
100
AcDbEntity
  8
0
 62
2
100
AcDbLine
 10
1088.1993067295043
 20
1011.7068196983489
 30
0
 11
1082.0740887884169
 21
1016.367976257872
 31
0
  0
ARC
  5
59F
330
1F
100
AcDbEntity
  8
0
 62
2
100
AcDbCircle
 10
1083.2852420740762
 20
1017.9595505609793
 30
0
 40
2.00000026091883
100
AcDbArc
 50
187.72966379884562
 51
232.72965760648819
  0
LINE
  5
5A0
330
1F
100
AcDbEntity
  8
0
 62
2
100
AcDbLine
 10
1081.3034144193132
 20
1017.6905520656459
 30
0
 11
1081.2803380088703
 21
1017.8605659792015
 31
0
  0
LINE
  5
5A1
330
1F
100
AcDbEntity
  8
0
 62
2
100
AcDbLine
 10
1081.2803380088703
 20
1017.8605659792015
 30
0
 11
1083.8495815952897
 21
1021.2368046250385
 31
0
  0
LINE
  5
5A2
330
1F
100
AcDbEntity
  8
0
 62
2
100
AcDbLine
 10
1083.8495815952897
 20
1021.2368046250385
 30
0
 11
1079.6801071216305
 21
1051.955129491696
 31
0
  0
LINE
  5
5A3
330
1F
100
AcDbEntity
  8
0
 62
2
100
AcDbLine
 10
1079.6801071216305
 20
1051.955129491696
 30
0
 11
1051.8954257828989
 21
1048.1838457350632
 31
0
  0
LINE
  5
5A4
330
1F
100
AcDbEntity
  8
0
 62
2
100
AcDbLine
 10
1051.8954257828989
 20
1048.1838457350632
 30
0
 11
1056.0649002565578
 21
1017.4655208684059
 31
0
  0
LINE
  5
5A5
330
1F
100
AcDbEntity
  8
0
 62
2
100
AcDbLine
 10
1056.0649002565578
 20
1017.4655208684059
 30
0
 11
1059.4435826384824
 21
1014.8966089763509
 31
0
  0
LINE
  5
5A6
330
1F
100
AcDbEntity
  8
0
 62
2
100
AcDbLine
 10
1059.4435826384824
 20
1014.8966089763509
 30
0
 11
1059.99838543543
 21
1010.7908006468065
 31
0
  0
ARC
  5
5A7
330
1F
100
AcDbEntity
  8
0
 62
2
100
AcDbCircle
 10
1063.9626779813104
 20
1011.3240783741097
 30
0
 40
4.00000006547017
100
AcDbArc
 50
187.66145186186262
 51
232.66145108491475
  0
LINE
  5
5A8
330
1F
100
AcDbEntity
  8
0
 62
2
100
AcDbLine
 10
1061.5365840936176
 20
1008.143815967977
 30
0
 11
1064.4728474404358
 21
1005.9038591504269
 31
0
  0
ARC
  5
5A9
330
1F
100
AcDbEntity
  8
0
 62
2
100
AcDbCircle
 10
1063.2598006264702
 20
1004.3137279389308
 30
0
 40
1.99999996066156
100
AcDbArc
 50
277.72965798615047
 51
52.661454189676853
  0
LINE
  5
5AA
330
1F
100
AcDbEntity
  8
0
 62
2
100
AcDbLine
 10
1063.5287988803616
 20
1002.3319005544067
 30
0
 11
1040.5859333132541
 21
999.21780846931142
 31
0
  0
ARC
  5
5AB
330
1F
100
AcDbEntity
  8
0
 62
2
100
AcDbCircle
 10
1045.0244061328515
 20
966.5176561973816
 30
0
 40
32.9999999936015
100
AcDbArc
 50
97.729660691390592
 51
187.72966071360923
  0
LINE
  5
5AC
330
1F
100
AcDbEntity
  8
0
 62
2
100
AcDbLine
 10
1012.3242538626429
 20
962.07918336510352
 30
0
 11
1012.4318532038985
 21
961.28645240080346
 31
0
  0
ARC
  5
5AD
330
1F
100
AcDbEntity
  8
0
 62
2
100
AcDbCircle
 10
1045.1320054793232
 20
965.724925225037
 30
0
 40
32.9999999976881
100
AcDbArc
 50
187.72966069855096
 51
276.86150961620456
  0
LINE
  5
5AE
330
1F
100
AcDbEntity
  8
0
 62
2
100
AcDbLine
 10
1049.0745119595974
 20
932.96127703835907
 30
0
 11
1061.2950474324707
 21
934.61617781653467
 31
0
  0
LINE
  5
5AF
330
1F
100
AcDbEntity
  8
0
 62
2
100
AcDbLine
 10
1061.2950474324707
 20
934.61617781653467
 30
0
 11
1064.6712860783077
 21
932.04693423011554
 31
0
  0
LINE
  5
5B0
330
1F
100
AcDbEntity
  8
0
 62
2
100
AcDbLine
 10
1064.6712860783077
 20
932.04693423011554
 30
0
 11
1092.4168698288372
 21
935.81291117406568
 31
0
  0
LINE
  5
5B1
330
1F
100
AcDbEntity
  8
0
 62
2
100
AcDbLine
 10
1092.4168698288372
 20
935.81291117406568
 30
0
 11
1088.1128961786085
 21
967.5221497460991
 31
0
  0
LINE
  5
5B2
330
1F
100
AcDbEntity
  8
0
 62
2
100
AcDbLine
 10
1088.1128961786085
 20
967.5221497460991
 30
0
 11
1060.367312428079
 21
963.756172802149
 31
0
  0
LINE
  5
5B3
330
1F
100
AcDbEntity
  8
0
 62
2
100
AcDbLine
 10
1060.367312428079
 20
963.756172802149
 30
0
 11
1057.7980688416599
 21
960.379934156312
 31
0
  0
LINE
  5
5B4
330
1F
100
AcDbEntity
  8
0
 62
2
100
AcDbLine
 10
1057.7980688416599
 20
960.379934156312
 30
0
 11
1045.5756380222736
 21
958.73899721705436
 31
0
  0
ARC
  5
5B5
330
1F
100
AcDbEntity
  8
0
 62
2
100
AcDbCircle
 10
1045.1320054991882
 20
965.7249252494363
 30
0
 40
7.00000002065425
100
AcDbArc
 50
187.72966085990976
 51
273.63361678696333
  0
LINE
  5
5B6
330
1F
100
AcDbEntity
  8
0
 62
2
100
AcDbLine
 10
1038.1956095436758
 20
964.7834309916143
 30
0
 11
1038.08801020242
 21
965.57616195591424
 31
0
  0
ARC
  5
5B7
330
1F
100
AcDbEntity
  8
0
 62
2
100
AcDbCircle
 10
1045.0244061897331
 20
966.51765615409613
 30
0
 40
7.00000004414424
100
AcDbArc
 50
97.729661063826342
 51
187.72966034117522
  0
LINE
  5
5B8
330
1F
100
AcDbEntity
  8
0
 62
2
100
AcDbLine
 10
1044.082911904065
 20
973.45405212953415
 30
0
 11
1083.7512475200308
 21
978.83833377514031
 31
0
  0
ARC
  5
5B9
330
1F
100
AcDbEntity
  8
0
 62
2
100
AcDbCircle
 10
1082.4062557860304
 20
988.74747080478073
 30
0
 40
9.99999997183605
100
AcDbArc
 50
277.72966054113226
 51
7.7296608638676236
  0
LINE
  5
5BA
330
1F
100
AcDbEntity
  8
0
 62
2
100
AcDbLine
 10
1092.3153928080949
 20
990.09246259459724
 30
0
 11
1089.7406554676986
 21
1009.0616680827884
 31
0
  0
ENDSEC
  0
SECTION
  2
OBJECTS
  0
DICTIONARY
  5
C
330
0
100
AcDbDictionary
280
0
281
1
  3
ACAD_SCALELIST
350
5C0
  3
ACAD_COLOR
350
5D2
  3
ACAD_FIELDLIST
350
5D3
  3
ACAD_GROUP
350
D
  3
ACAD_IMAGE_DICT
350
5D4
  3
ACAD_LAYOUT
350
1A
  3
ACAD_MATERIAL
350
5D5
  3
ACAD_MLEADERSTYLE
350
5D6
  3
ACAD_MLINESTYLE
350
17
  3
ACAD_PLOTSETTINGS
350
19
  3
ACAD_PLOTSTYLENAME
350
E
  3
ACAD_TABLESTYLE
350
5D8
  3
ACDB_RECOMPOSE_DATA
350
5DC
  3
AcDbVariableDictionary
350
5DD
  3
ACAD_VISUALSTYLE
350
5E0
  3
DWGPROPS
350
5E1
  0
DICTIONARY
  5
5DA
330
5D9
100
AcDbDictionary
280
0
281
1
  3
ACAD_ROUNDTRIP_2008_TABLESTYLE_CELLSTYLEMAP
360
5DB
  0
DICTIONARY
  5
5C0
102
{ACAD_REACTORS
330
C
102
}
330
C
100
AcDbDictionary
280
0
281
1
  0
DICTIONARY
  5
5D2
102
{ACAD_REACTORS
330
C
102
}
330
C
100
AcDbDictionary
280
0
281
1
  0
FIELDLIST
  5
5D3
102
{ACAD_REACTORS
330
C
102
}
330
C
100
AcDbIdSet
100
AcDbFieldList
  0
DICTIONARY
  5
D
102
{ACAD_REACTORS
330
C
102
}
330
C
100
AcDbDictionary
280
0
281
1
  0
DICTIONARY
  5
5D4
102
{ACAD_REACTORS
330
C
102
}
330
C
100
AcDbDictionary
280
0
281
1
  0
DICTIONARY
  5
1A
102
{ACAD_REACTORS
330
C
102
}
330
C
100
AcDbDictionary
280
0
281
1
  3
Layout1
350
1E
  3
Model
350
22
  0
DICTIONARY
  5
5D5
102
{ACAD_REACTORS
330
C
102
}
330
C
100
AcDbDictionary
280
0
281
1
  0
DICTIONARY
  5
5D6
102
{ACAD_REACTORS
330
C
102
}
330
C
100
AcDbDictionary
280
0
281
1
  3
Standard
350
5D7
  0
DICTIONARY
  5
17
102
{ACAD_REACTORS
330
C
102
}
330
C
100
AcDbDictionary
280
0
281
1
  3
STANDARD
350
18
  0
DICTIONARY
  5
19
102
{ACAD_REACTORS
330
C
102
}
330
C
100
AcDbDictionary
280
0
281
1
  0
ACDBDICTIONARYWDFLT
  5
E
102
{ACAD_REACTORS
330
C
102
}
330
C
100
AcDbDictionary
280
0
281
1
  3
Normal
350
F
100
AcDbDictionaryWithDefault
340
F
  0
ACDBPLACEHOLDER
  5
F
102
{ACAD_REACTORS
330
E
102
}
330
E
  0
DICTIONARY
  5
5D8
102
{ACAD_REACTORS
330
C
102
}
330
C
100
AcDbDictionary
280
0
281
1
  3
Standard
350
5D9
  0
XRECORD
  5
5DC
102
{ACAD_REACTORS
330
C
102
}
330
C
100
AcDbXrecord
280
1
 90
1
330
5D9
  0
DICTIONARY
  5
5DD
102
{ACAD_REACTORS
330
C
102
}
330
C
100
AcDbDictionary
280
0
281
1
  3
DIMASSOC
350
5DE
  3
HIDETEXT
350
5DF
  0
DICTIONARY
  5
5E0
102
{ACAD_REACTORS
330
C
102
}
330
C
100
AcDbDictionary
280
0
281
1
  0
XRECORD
  5
5E1
102
{ACAD_REACTORS
330
C
102
}
330
C
100
AcDbXrecord
280
0
  1
DWGPROPS COOKIE
  2

  3

  4

  6

  7

  8

  9

300
=
301
=
302
=
303
=
304
=
305
=
306
=
307
=
308
=
309
=
 40
0
 41
2461017.8804086572
 42
2461017.8804086572
  1

 90
0
  0
CELLSTYLEMAP
  5
5DB
102
{ACAD_REACTORS
330
5DA
102
}
330
5DA
100
AcDbCellStyleMap
 90
3
300
CELLSTYLE
  1
TABLEFORMAT_BEGIN
 90
5
170
0
309
TABLEFORMAT_END
  1
CELLSTYLE_BEGIN
 90
3
 91
2
300
_DATA
309
CELLSTYLE_END
300
CELLSTYLE
  1
TABLEFORMAT_BEGIN
 90
5
170
0
309
TABLEFORMAT_END
  1
CELLSTYLE_BEGIN
 90
1
 91
2
300
_TITLE
309
CELLSTYLE_END
300
CELLSTYLE
  1
TABLEFORMAT_BEGIN
 90
5
170
0
309
TABLEFORMAT_END
  1
CELLSTYLE_BEGIN
 90
2
 91
2
300
_HEADER
309
CELLSTYLE_END
  0
LAYOUT
  5
1E
102
{ACAD_REACTORS
330
1A
102
}
330
1A
100
AcDbPlotSettings
  1

  2
C:\Program Files\AutoCAD 2002\plotters\DWF ePlot (optimized for plotting).pc3
  4

  6

 40
0
 41
0
 42
0
 43
0
 44
0
 45
0
 46
0
 47
0
 48
0
 49
0
140
0
141
0
142
1
143
1
 70
688
 72
1
 73
1
 74
1
  7
acad.stb
 75
16
 76
0
 77
0
 78
0
147
1
148
0
149
0
100
AcDbLayout
  1
Layout1
 70
1
 71
1
 10
0
 20
0
 11
420
 21
297
 12
0
 22
0
 32
0
 14
0
 24
0
 34
0
 15
0
 25
0
 35
0
146
0
 13
0
 23
0
 33
0
 16
1
 26
0
 36
0
 17
0
 27
1
 37
0
 76
0
330
5BB
  0
LAYOUT
  5
22
102
{ACAD_REACTORS
330
1A
102
}
330
1A
100
AcDbPlotSettings
  1

  2
C:\Program Files\AutoCAD 2002\plotters\DWF ePlot (optimized for plotting).pc3
  4

  6

 40
0
 41
0
 42
0
 43
0
 44
0
 45
0
 46
0
 47
0
 48
0
 49
0
140
0
141
0
142
1
143
1
 70
1712
 72
1
 73
1
 74
0
  7
acad.stb
 75
0
 76
0
 77
0
 78
0
147
1
148
0
149
0
100
AcDbLayout
  1
Model
 70
1
 71
0
 10
0
 20
0
 11
12
 21
9
 12
0
 22
0
 32
0
 14
0
 24
0
 34
0
 15
0
 25
0
 35
0
146
0
 13
0
 23
0
 33
0
 16
1
 26
0
 36
0
 17
0
 27
1
 37
0
 76
0
330
1F
  0
MLEADERSTYLE
  5
5D7
102
{ACAD_REACTORS
330
5D6
102
}
330
5D6
100
AcDbMLeaderStyle
170
2
171
1
172
0
 90
2
 40
0
 41
0
173
1
 91
0
340
0
 92
-2
290
1
 42
0.09
292
1
 43
0.36
  3
Standard
341
0
 44
0.18
300

342
0
174
1
178
1
175
1
176
0
 93
0
 45
0.18
292
0
297
0
 46
0
343
0
 94
0
 47
1
 49
1
140
1
293
1
141
0
294
1
177
0
142
1
295
0
296
0
143
0.125
  0
MLINESTYLE
  5
18
102
{ACAD_REACTORS
330
17
102
}
330
17
100
AcDbMlineStyle
  2
STANDARD
 70
0
  3

 51
90
 52
90
 71
2
 49
0.5
 62
0
  6
ByLayer
 49
-0.5
 62
0
  6
ByLayer
  0
TABLESTYLE
  5
5D9
102
{ACAD_XDICTIONARY
360
5DA
102
}
102
{ACAD_REACTORS
330
5D8
102
}
330
5D8
100
AcDbTableStyle
  3

 70
0
 71
0
 40
0.06
 41
0.06
280
0
281
0
  7
Standard
140
0.18
170
1
 62
0
283
0
 90
512
 91
0
274
-2
284
1
 64
0
275
-2
285
1
 65
0
276
-2
286
1
 66
0
277
-2
287
1
 67
0
278
-2
288
1
 68
0
279
-2
289
1
 69
0
  7
Standard
140
0.18
170
1
 62
0
283
0
 90
512
 91
0
274
-2
284
1
 64
0
275
-2
285
1
 65
0
276
-2
286
1
 66
0
277
-2
287
1
 67
0
278
-2
288
1
 68
0
279
-2
289
1
 69
0
  7
Standard
140
0.18
170
1
 62
0
283
0
 90
512
 91
0
274
-2
284
1
 64
0
275
-2
285
1
 65
0
276
-2
286
1
 66
0
277
-2
287
1
 67
0
278
-2
288
1
 68
0
279
-2
289
1
 69
0
  0
DICTIONARYVAR
  5
5DE
102
{ACAD_REACTORS
330
5DD
102
}
330
5DD
100
DictionaryVariables
280
0
  1
1
  0
DICTIONARYVAR
  5
5DF
102
{ACAD_REACTORS
330
5DD
102
}
330
5DD
100
DictionaryVariables
280
0
  1
2
  0
ENDSEC
999
Created By CadLib version 4.0.38.30
999
CadLib website: www.woutware.com
  0
EOF
