  0
SECTION
  2
HEADER
  9
$ACADVER
  1
AC1015
  9
$DWGCODEPAGE
  3
ansi_1252
  9
$INSBASE
 10
0
 20
0
 30
0
  9
$EXTMIN
 10
5.0157603099896262
 20
15.668491409060007
 30
0
  9
$EXTMAX
 10
522.170005980247
 20
1494.9842378715764
 30
0
  9
$LIMMIN
 10
0
 20
0
  9
$LIMMAX
 10
12
 20
9
  9
$SNAPMODE
 70
0
  9
$SNAPUNIT
 10
1
 20
1
  9
$SNAPBASE
 10
0
 20
0
  9
$SNAPANG
 50
0
  9
$SNAPSTYLE
 70
0
  9
$SNAPISOPAIR
 70
0
  9
$ORTHOMODE
 70
0
  9
$REGENMODE
 70
1
  9
$FILLMODE
 70
1
  9
$QTEXTMODE
 70
0
  9
$MIRRTEXT
 70
1
  9
$LTSCALE
 40
1
  9
$OSMODE
 70
0
  9
$ATTMODE
 70
1
  9
$TEXTSIZE
 40
0.2
  9
$TRACEWID
 40
0.05
  9
$TEXTSTYLE
  7
Standard
  9
$CLAYER
  8
0
  9
$CELTYPE
  6
ByLayer
  9
$CECOLOR
 62
256
  9
$CELTSCALE
 40
1
  9
$DISPSILH
 70
0
  9
$DIMSCALE
 40
1
  9
$DIMASZ
 40
0.18
  9
$DIMEXO
 40
0.0625
  9
$DIMDLI
 40
0.38
  9
$DIMRND
 40
0
  9
$DIMDLE
 40
0
  9
$DIMEXE
 40
0.18
  9
$DIMTP
 40
0
  9
$DIMTM
 40
0
  9
$DIMTXT
 40
0.18
  9
$DIMCEN
 40
0.09
  9
$DIMTSZ
 40
0
  9
$DIMTOL
 70
0
  9
$DIMLIM
 70
0
  9
$DIMTIH
 70
1
  9
$DIMTOH
 70
1
  9
$DIMSE1
 70
0
  9
$DIMSE2
 70
0
  9
$DIMTAD
 70
0
  9
$DIMZIN
 70
0
  9
$DIMBLK
  1

  9
$DIMASO
 70
1
  9
$DIMSHO
 70
1
  9
$DIMPOST
  1

  9
$DIMAPOST
  1

  9
$DIMALT
 70
0
  9
$DIMALTD
 70
2
  9
$DIMALTF
 40
0.03937007874015748
  9
$DIMLFAC
 40
1
  9
$DIMTOFL
 70
0
  9
$DIMTVP
 40
0
  9
$DIMTIX
 70
0
  9
$DIMSOXD
 70
0
  9
$DIMSAH
 70
0
  9
$DIMBLK1
  1

  9
$DIMBLK2
  1

  9
$DIMSTYLE
  2
Standard
  9
$DIMCLRD
 70
0
  9
$DIMCLRE
 70
0
  9
$DIMCLRT
 70
0
  9
$DIMTFAC
 40
1
  9
$DIMGAP
 40
0.09
  9
$DIMJUST
 70
0
  9
$DIMSD1
 70
0
  9
$DIMSD2
 70
0
  9
$DIMTOLJ
 70
1
  9
$DIMTZIN
 70
0
  9
$DIMALTZ
 70
0
  9
$DIMALTTZ
 70
0
  9
$DIMUPT
 70
0
  9
$DIMDEC
 70
4
  9
$DIMTDEC
 70
4
  9
$DIMALTU
 70
2
  9
$DIMALTTD
 70
0
  9
$DIMTXSTY
  7
Standard
  9
$DIMAUNIT
 70
0
  9
$DIMADEC
 70
0
  9
$DIMALTRND
 40
0
  9
$DIMAZIN
 70
0
  9
$DIMDSEP
 70
46
  9
$DIMATFIT
 70
0
  9
$DIMFRAC
 70
0
  9
$DIMLDRBLK
  1

  9
$DIMLUNIT
 70
2
  9
$DIMLWD
 70
-2
  9
$DIMLWE
 70
-2
  9
$LUNITS
 70
2
  9
$LUPREC
 70
4
  9
$SKETCHINC
 40
0.1
  9
$FILLETRAD
 40
0
  9
$AUNITS
 70
0
  9
$AUPREC
 70
0
  9
$MENU
  1
.
  9
$ELEVATION
 40
0
  9
$PELEVATION
 40
0
  9
$THICKNESS
 40
0
  9
$LIMCHECK
 70
0
  9
$CHAMFERA
 40
0.5
  9
$CHAMFERB
 40
0.5
  9
$CHAMFERC
 40
0
  9
$CHAMFERD
 40
0
  9
$SKPOLY
 70
0
  9
$TDCREATE
 40
2461052.9105197918
  9
$TDUCREATE
 40
2461052.5771864583
  9
$TDUPDATE
 40
2461052.9105197918
  9
$TDUUPDATE
 40
2461052.5771864583
  9
$TDINDWG
 40
0
  9
$TDUSRTIMER
 40
1.1574074074074074E-08
  9
$USRTIMER
 70
1
  9
$ANGBASE
 50
0
  9
$ANGDIR
 70
1
  9
$PDMODE
 70
0
  9
$PDSIZE
 40
0
  9
$PLINEWID
 40
0
  9
$SPLFRAME
 70
0
  9
$SPLINETYPE
 70
6
  9
$SPLINESEGS
 70
8
  9
$HANDSEED
  5
2A7
  9
$SURFTAB1
 70
6
  9
$SURFTAB2
 70
6
  9
$SURFTYPE
 70
6
  9
$SURFU
 70
6
  9
$SURFV
 70
6
  9
$UCSORG
 10
0
 20
0
 30
0
  9
$UCSXDIR
 10
1
 20
0
 30
0
  9
$UCSYDIR
 10
0
 20
1
 30
0
  9
$UCSORTHOREF
  2

  9
$UCSORTHOVIEW
 70
0
  9
$UCSORGTOP
 10
0
 20
0
 30
0
  9
$UCSORGBOTTOM
 10
0
 20
0
 30
0
  9
$UCSORGLEFT
 10
0
 20
0
 30
0
  9
$UCSORGRIGHT
 10
0
 20
0
 30
0
  9
$UCSORGFRONT
 10
0
 20
0
 30
0
  9
$UCSORGBACK
 10
0
 20
0
 30
0
  9
$PUCSORG
 10
0
 20
0
 30
0
  9
$PUCSXDIR
 10
1
 20
0
 30
0
  9
$PUCSYDIR
 10
0
 20
1
 30
0
  9
$PUCSORTHOREF
  2

  9
$PUCSORTHOVIEW
 70
0
  9
$PUCSORGTOP
 10
0
 20
0
 30
0
  9
$PUCSORGBOTTOM
 10
0
 20
0
 30
0
  9
$PUCSORGLEFT
 10
0
 20
0
 30
0
  9
$PUCSORGRIGHT
 10
0
 20
0
 30
0
  9
$PUCSORGFRONT
 10
0
 20
0
 30
0
  9
$PUCSORGBACK
 10
0
 20
0
 30
0
  9
$USERI1
 70
0
  9
$USERI2
 70
0
  9
$USERI3
 70
0
  9
$USERI4
 70
0
  9
$USERI5
 70
0
  9
$USERR1
 40
0
  9
$USERR2
 40
0
  9
$USERR3
 40
0
  9
$USERR4
 40
0
  9
$USERR5
 40
0
  9
$WORLDVIEW
 70
1
  9
$SHADEDGE
 70
3
  9
$SHADEDIF
 70
70
  9
$TILEMODE
 70
1
  9
$MAXACTVP
 70
48
  9
$PINSBASE
 10
0
 20
0
 30
0
  9
$PLIMCHECK
 70
0
  9
$PEXTMIN
 10
1E+20
 20
1E+20
 30
1E+20
  9
$PEXTMAX
 10
-1E+20
 20
-1E+20
 30
-1E+20
  9
$PLIMMAX
 10
0
 20
0
  9
$PLIMMIN
 10
0
 20
0
  9
$UNITMODE
 70
0
  9
$VISRETAIN
 70
1
  9
$PLINEGEN
 70
1
  9
$PSLTSCALE
 70
1
  9
$TREEDEPTH
 70
3020
  9
$CMLSTYLE
  2
STANDARD
  9
$CMLJUST
 70
0
  9
$CMLSCALE
 40
1
  9
$PROXYGRAPHICS
 70
1
  9
$MEASUREMENT
 70
1
  9
$CELWEIGHT
370
-1
  9
$ENDCAPS
280
0
  9
$JOINSTYLE
280
0
  9
$LWDISPLAY
290
1
  9
$INSUNITS
 70
4
  9
$HYPERLINKBASE
  1

  9
$XEDIT
290
1
  9
$CEPSNTYPE
380
0
  9
$PSTYLEMODE
290
0
  9
$FINGERPRINTGUID
  2

  9
$VERSIONGUID
  2

  9
$EXTNAMES
290
1
  9
$PSVPSCALE
 40
0
  9
$CSHADOW
280
0
  9
$SHADOWPLANELOCATION
 40
0
  0
ENDSEC
  0
SECTION
  2
CLASSES
  0
CLASS
  1
RASTERVARIABLES
  2
AcDbRasterVariables
  3
ISM
 90
0
280
0
281
0
  0
CLASS
  1
IMAGEDEF
  2
AcDbRasterImageDef
  3
ISM
 90
0
280
0
281
0
  0
CLASS
  1
IMAGEDEF_REACTOR
  2
AcDbRasterImageDefReactor
  3
ISM
 90
1
280
0
281
0
  0
CLASS
  1
IMAGE
  2
AcDbRasterImage
  3
ISM
 90
127
280
0
281
1
  0
CLASS
  1
ACAD_EVALUATION_GRAPH
  2
AcDbEvalGraph
  3
ObjectDBX Classes
 90
1153
280
0
281
0
  0
CLASS
  1
BLOCKPOINTPARAMETER
  2
AcDbBlockPointParameter
  3
ObjectDBX Classes
 90
1153
280
0
281
0
  0
CLASS
  1
BLOCKBASEPOINTPARAMETER
  2
AcDbBlockBasepointParameter
  3
ObjectDBX Classes
 90
1153
280
0
281
0
  0
CLASS
  1
BLOCKLOOKUPPARAMETER
  2
AcDbBlockLookupParameter
  3
ObjectDBX Classes
 90
1153
280
0
281
0
  0
CLASS
  1
BLOCKVISIBILITYPARAMETER
  2
AcDbBlockVisibilityParameter
  3
ObjectDBX Classes
 90
1153
280
0
281
0
  0
CLASS
  1
BLOCKPROPERTIESTABLE
  2
AcDbBlockPropertiesTable
  3
ObjectDBX Classes
 90
1153
280
0
281
0
  0
CLASS
  1
BLOCKPOLARPARAMETER
  2
AcDbBlockPolarParameter
  3
ObjectDBX Classes
 90
1153
280
0
281
0
  0
CLASS
  1
BLOCKROTATIONPARAMETER
  2
AcDbBlockRotationParameter
  3
ObjectDBX Classes
 90
1153
280
0
281
0
  0
CLASS
  1
BLOCKLINEARPARAMETER
  2
AcDbBlockLinearParameter
  3
ObjectDBX Classes
 90
1153
280
0
281
0
  0
CLASS
  1
BLOCKXYPARAMETER
  2
AcDbBlockXYParameter
  3
ObjectDBX Classes
 90
1153
280
0
281
0
  0
CLASS
  1
BLOCKFLIPPARAMETER
  2
AcDbBlockFlipParameter
  3
ObjectDBX Classes
 90
1153
280
0
281
0
  0
CLASS
  1
BLOCKALIGNMENTPARAMETER
  2
AcDbBlockAlignmentParameter
  3
ObjectDBX Classes
 90
1153
280
0
281
0
  0
CLASS
  1
BLOCKROTATEACTION
  2
AcDbBlockRotateAction
  3
ObjectDBX Classes
 90
1153
280
0
281
0
  0
CLASS
  1
BLOCKSCALEACTION
  2
AcDbBlockScaleAction
  3
ObjectDBX Classes
 90
1153
280
0
281
0
  0
CLASS
  1
BLOCKARRAYACTION
  2
AcDbBlockArrayAction
  3
ObjectDBX Classes
 90
1153
280
0
281
0
  0
CLASS
  1
BLOCKFLIPACTION
  2
AcDbBlockFlipAction
  3
ObjectDBX Classes
 90
1153
280
0
281
0
  0
CLASS
  1
BLOCKLOOKUPACTION
  2
AcDbBlockLookupAction
  3
ObjectDBX Classes
 90
1153
280
0
281
0
  0
CLASS
  1
BLOCKMOVEACTION
  2
AcDbBlockMoveAction
  3
ObjectDBX Classes
 90
1153
280
0
281
0
  0
CLASS
  1
BLOCKPOLARSTRETCHACTION
  2
AcDbBlockPolarStretchAction
  3
ObjectDBX Classes
 90
1153
280
0
281
0
  0
CLASS
  1
BLOCKSTRETCHACTION
  2
AcDbBlockStretchAction
  3
ObjectDBX Classes
 90
1153
280
0
281
0
  0
CLASS
  1
BLOCKALIGNMENTGRIP
  2
AcDbBlockAlignmentGrip
  3
ObjectDBX Classes
 90
1153
280
0
281
0
  0
CLASS
  1
BLOCKFLIPGRIP
  2
AcDbBlockFlipGrip
  3
ObjectDBX Classes
 90
1153
280
0
281
0
  0
CLASS
  1
ACDB_BLOCKREPRESENTATION_DATA
  2
AcDbBlockRepresentationData
  3
ObjectDBX Classes
 90
1153
280
0
281
0
  0
CLASS
  1
ACDB_DYNAMICBLOCKPURGEPREVENTER_VERSION
  2
AcDbDynamicBlockPurgePreventer
  3
ObjectDBX Classes
 90
1153
280
0
281
0
  0
CLASS
  1
BLOCKLINEARGRIP
  2
AcDbBlockLinearGrip
  3
ObjectDBX Classes
 90
1153
280
0
281
0
  0
CLASS
  1
BLOCKLOOKUPGRIP
  2
AcDbBlockLookupGrip
  3
ObjectDBX Classes
 90
1153
280
0
281
0
  0
CLASS
  1
BLOCKPOLARGRIP
  2
AcDbBlockPolarGrip
  3
ObjectDBX Classes
 90
1153
280
0
281
0
  0
CLASS
  1
BLOCKPROPERTIESTABLEGRIP
  2
AcDbBlockPropertiesTableGrip
  3
ObjectDBX Classes
 90
1153
280
0
281
0
  0
CLASS
  1
BLOCKROTATIONGRIP
  2
AcDbBlockRotationGrip
  3
ObjectDBX Classes
 90
1153
280
0
281
0
  0
CLASS
  1
BLOCKVISIBILITYGRIP
  2
AcDbBlockVisibilityGrip
  3
ObjectDBX Classes
 90
1153
280
0
281
0
  0
CLASS
  1
BLOCKXYGRIP
  2
AcDbBlockXYGrip
  3
ObjectDBX Classes
 90
1153
280
0
281
0
  0
CLASS
  1
BLOCKGRIPLOCATIONCOMPONENT
  2
AcDbBlockGripExpr
  3
ObjectDBX Classes
 90
1153
280
0
281
0
  0
CLASS
  1
ACDB_DYNAMICBLOCKPROXYNODE
  2
AcDbDynamicBlockProxyNode
  3
ObjectDBX Classes
 90
1153
280
0
281
0
  0
CLASS
  1
BLOCKLINEARCONSTRAINTPARAMETER
  2
AcDbBlockLinearConstraintParameter
  3
ObjectDBX Classes
 90
1153
280
0
281
0
  0
CLASS
  1
BLOCKHORIZONTALCONSTRAINTPARAMETER
  2
AcDbBlockHorizontalConstraintParameter
  3
ObjectDBX Classes
 90
1153
280
0
281
0
  0
CLASS
  1
BLOCKVERTICALCONSTRAINTPARAMETER
  2
AcDbBlockVerticalConstraintParameter
  3
ObjectDBX Classes
 90
1153
280
0
281
0
  0
CLASS
  1
BLOCKALIGNEDCONSTRAINTPARAMETER
  2
AcDbBlockAlignedConstraintParameter
  3
ObjectDBX Classes
 90
1153
280
0
281
0
  0
CLASS
  1
BLOCKANGULARCONSTRAINTPARAMETER
  2
AcDbBlockAngularConstraintParameter
  3
ObjectDBX Classes
 90
1153
280
0
281
0
  0
CLASS
  1
BLOCKDIAMETRICCONSTRAINTPARAMETER
  2
AcDbBlockDiametricConstraintParameter
  3
ObjectDBX Classes
 90
1153
280
0
281
0
  0
CLASS
  1
BLOCKRADIALCONSTRAINTPARAMETER
  2
AcDbBlockRadialConstraintParameter
  3
ObjectDBX Classes
 90
1153
280
0
281
0
  0
ENDSEC
  0
SECTION
  2
TABLES
  0
TABLE
  2
VPORT
  5
8
330
0
100
AcDbSymbolTable
 70
1
  0
VPORT
  5
282
330
8
100
AcDbSymbolTableRecord
100
AcDbViewportTableRecord
  2
*Active
 70
64
 10
0
 20
0
 11
1
 21
1
 12
263.59288314511832
 22
755.32636464031816
 13
0
 23
0
 14
1
 24
1
 15
0
 25
0
 16
0
 26
0
 36
1
 17
0
 27
0
 37
0
 40
1479.3157464625165
 41
0.3495901716093584
 42
50
 43
0
 44
0
 50
0
 51
0
 71
0
 72
20000
 73
20000
 74
1
 75
0
 76
0
 77
0
 78
0
281
0
 65
1
110
0
120
0
130
0
111
1
121
0
131
0
112
0
122
1
132
0
 79
0
146
0
  0
ENDTAB
  0
TABLE
  2
LTYPE
  5
5
100
AcDbSymbolTable
 70
3
  0
LTYPE
  5
16
330
5
100
AcDbSymbolTableRecord
100
AcDbLinetypeTableRecord
  2
Continuous
  3
Solid line
 70
64
 72
65
 73
0
 40
0
  0
LTYPE
  5
14
330
5
100
AcDbSymbolTableRecord
100
AcDbLinetypeTableRecord
  2
ByBlock
  3

 70
64
 72
65
 73
0
 40
0
  0
LTYPE
  5
15
330
5
100
AcDbSymbolTableRecord
100
AcDbLinetypeTableRecord
  2
ByLayer
  3

 70
64
 72
65
 73
0
 40
0
  0
ENDTAB
  0
TABLE
  2
LAYER
  5
2
100
AcDbSymbolTable
 70
2
  0
LAYER
  5
10
330
2
100
AcDbSymbolTableRecord
100
AcDbLayerTableRecord
 70
64
  2
0
 62
7
  6
Continuous
370
-3
390
F
  0
LAYER
  5
27
330
2
100
AcDbSymbolTableRecord
100
AcDbLayerTableRecord
 70
64
  2
DEFPOINTS
 62
7
  6
Continuous
290
0
370
-3
390
F
  0
ENDTAB
  0
TABLE
  2
STYLE
  5
3
100
AcDbSymbolTable
 70
1
  0
STYLE
  5
11
330
3
100
AcDbSymbolTableRecord
100
AcDbTextStyleTableRecord
  2
Standard
 70
64
 40
0
 41
1
 50
0
 71
0
 42
0.2
  3
txt.shx
  0
ENDTAB
  0
TABLE
  2
VIEW
  5
6
100
AcDbSymbolTable
 70
0
  0
ENDTAB
  0
TABLE
  2
UCS
  5
7
100
AcDbSymbolTable
 70
0
  0
ENDTAB
  0
TABLE
  2
APPID
  5
9
330
0
100
AcDbSymbolTable
 70
2
  0
APPID
  5
12
330
0
100
AcDbSymbolTableRecord
100
AcDbRegAppTableRecord
  2
ACAD
 70
64
  0
APPID
  5
2A5
330
0
100
AcDbSymbolTableRecord
100
AcDbRegAppTableRecord
  2
ACAD_MLEADERVER
 70
64
  0
ENDTAB
  0
TABLE
  2
DIMSTYLE
  5
A
330
0
100
AcDbSymbolTable
 70
1
100
AcDbDimStyleTable
 71
0
  0
DIMSTYLE
105
281
330
A
100
AcDbSymbolTableRecord
100
AcDbDimStyleTableRecord
  2
Standard
 70
64
  3

  4

 40
1
 41
0.18
 42
0.0625
 43
0.38
 44
0.18
 45
0
 46
0
 47
0
 48
0
140
0.18
141
0.09
142
0
143
1
144
1
145
0
146
1
147
0.09
148
0
 71
0
 72
0
 73
1
 74
1
 75
0
 76
0
 77
0
 78
0
 79
0
170
0
171
2
172
0
173
0
174
0
175
0
179
0
271
4
272
4
273
2
274
0
275
0
276
0
277
2
278
46
279
0
280
0
281
0
282
0
283
1
284
0
285
0
286
0
288
0
289
0
340
11
371
-2
372
-2
  0
ENDTAB
  0
TABLE
  2
BLOCK_RECORD
  5
1
330
0
100
AcDbSymbolTable
 70
3
  0
BLOCK_RECORD
  5
1F
330
1
100
AcDbSymbolTableRecord
100
AcDbBlockTableRecord
  2
*Model_Space
340
22
  0
BLOCK_RECORD
  5
27E
330
1
100
AcDbSymbolTableRecord
100
AcDbBlockTableRecord
  2
*Paper_Space
340
1E
  0
ENDTAB
  0
ENDSEC
  0
SECTION
  2
BLOCKS
  0
BLOCK
  5
20
330
1F
100
AcDbEntity
  8
0
100
AcDbBlockBegin
  2
*Model_Space
 70
64
 10
0
 20
0
 30
0
  3
*Model_Space
  0
ENDBLK
  5
21
330
1F
100
AcDbEntity
  8
0
100
AcDbBlockEnd
  0
BLOCK
  5
27F
330
27E
100
AcDbEntity
  8
0
 67
1
100
AcDbBlockBegin
  2
*Paper_Space
 70
64
 10
0
 20
0
 30
0
  3
*Paper_Space
  0
ENDBLK
  5
280
330
27E
100
AcDbEntity
  8
0
100
AcDbBlockEnd
  0
ENDSEC
  0
SECTION
  2
ENTITIES
  0
ARC
  5
28
330
1F
100
AcDbEntity
  8
0
 62
7
100
AcDbCircle
 10
517.17501564412191
 20
227.73346885052774
 30
0
 40
4.99999961950946
100
AcDbArc
 50
333.43506295370048
 51
63.435062953700495
  0
LINE
  5
29
330
1F
100
AcDbEntity
  8
0
 62
7
100
AcDbLine
 10
519.411074543151
 20
232.2056089193502
 30
0
 11
492.57823310924681
 21
245.62196537641262
 31
0
  0
ARC
  5
2A
330
1F
100
AcDbEntity
  8
0
 62
7
100
AcDbCircle
 10
490.34217369973641
 20
241.14982513742871
 30
0
 40
5
100
AcDbArc
 50
63.435058593599436
 51
153.43505859360118
  0
LINE
  5
2B
330
1F
100
AcDbEntity
  8
0
 62
7
100
AcDbLine
 10
485.87003346075238
 20
243.385884546939
 30
0
 11
400.22401134662744
 21
72.093019886711772
 31
0
  0
ARC
  5
2C
330
1F
100
AcDbEntity
  8
0
 62
7
100
AcDbCircle
 10
395.75187110764335
 20
74.329079296222289
 30
0
 40
5.00000000000006
100
AcDbArc
 50
243.43505859360175
 51
333.43505859359914
  0
LINE
  5
2D
330
1F
100
AcDbEntity
  8
0
 62
7
100
AcDbLine
 10
393.51581169813306
 20
69.856939057238151
 30
0
 11
136.35561837929333
 21
198.43641986366765
 31
0
  0
ARC
  5
2E
330
1F
100
AcDbEntity
  8
0
 62
7
100
AcDbCircle
 10
134.11955896978293
 20
193.96427962468351
 30
0
 40
5
100
AcDbArc
 50
63.435058593600594
 51
153.43505859360118
  0
LINE
  5
2F
330
1F
100
AcDbEntity
  8
0
 62
7
100
AcDbLine
 10
129.6474187307989
 20
196.2003390341938
 30
0
 11
116.23106227373647
 21
169.36749760028988
 31
0
  0
ARC
  5
30
330
1F
100
AcDbEntity
  8
0
 62
7
100
AcDbCircle
 10
120.70320251272049
 20
167.13143819077936
 30
0
 40
4.99999999999989
100
AcDbArc
 50
153.43505859359885
 51
243.43505859359942
  0
LINE
  5
31
330
1F
100
AcDbEntity
  8
0
 62
7
100
AcDbLine
 10
118.46714310321009
 20
162.65929795179545
 30
0
 11
411.40445833392192
 21
16.191341869282951
 31
0
  0
ARC
  5
32
330
1F
100
AcDbEntity
  8
0
 62
7
100
AcDbCircle
 10
413.64051774343233
 20
20.663482108266862
 30
0
 40
5
100
AcDbArc
 50
243.43505859359942
 51
333.4350585936009
  0
LINE
  5
33
330
1F
100
AcDbEntity
  8
0
 62
7
100
AcDbLine
 10
418.11265798241629
 20
18.427422698756573
 30
0
 11
521.64715571294437
 21
225.49740995149864
 31
0
  0
CIRCLE
  5
34
330
1F
100
AcDbEntity
  8
0
 62
7
100
AcDbCircle
 10
190.02131409916117
 20
164.89550301731992
 30
0
 40
2.545
  0
CIRCLE
  5
35
330
1F
100
AcDbEntity
  8
0
 62
7
100
AcDbCircle
 10
179.42535378563585
 20
147.0594698655791
 30
0
 40
3.045
  0
CIRCLE
  5
36
330
1F
100
AcDbEntity
  8
0
 62
7
100
AcDbCircle
 10
213.547733222083
 20
144.70745117976048
 30
0
 40
3.045
  0
CIRCLE
  5
37
330
1F
100
AcDbEntity
  8
0
 62
7
100
AcDbCircle
 10
434.72913652769159
 20
106.45000451851956
 30
0
 40
5.02
  0
CIRCLE
  5
38
330
1F
100
AcDbEntity
  8
0
 62
7
100
AcDbCircle
 10
479.45032471806678
 20
195.89280929856341
 30
0
 40
5.02
  0
CIRCLE
  5
39
330
1F
100
AcDbEntity
  8
0
 62
7
100
AcDbCircle
 10
502.86417065288646
 20
232.65279081330164
 30
0
 40
2.545
  0
LINE
  5
3A
330
1F
100
AcDbEntity
  8
0
 62
7
100
AcDbLine
 10
141.34400014802841
 20
162.8387153988815
 30
0
 11
144.92171233921565
 21
161.04986787127314
 31
0
  0
ARC
  5
3B
330
1F
100
AcDbEntity
  8
0
 62
7
100
AcDbCircle
 10
147.60498363062814
 20
166.416436158054
 30
0
 40
6
100
AcDbArc
 50
243.43505859360008
 51
63.435058593600111
  0
LINE
  5
3C
330
1F
100
AcDbEntity
  8
0
 62
7
100
AcDbLine
 10
150.28825492204064
 20
171.78300444483489
 30
0
 11
146.71054273085295
 21
173.57185197244235
 31
0
  0
ARC
  5
3D
330
1F
100
AcDbEntity
  8
0
 62
7
100
AcDbCircle
 10
144.02727157002786
 20
168.20528362036816
 30
0
 40
5.99999999999932
100
AcDbArc
 50
63.435059987806817
 51
243.43505719939338
  0
LINE
  5
3E
330
1F
100
AcDbEntity
  8
0
 62
7
100
AcDbLine
 10
141.34400014802841
 20
162.8387153988815
 30
0
 11
141.34400014802841
 21
162.8387153988815
 31
0
  0
ARC
  5
3F
330
1F
100
AcDbEntity
  8
0
 62
7
100
AcDbCircle
 10
10.013117458824624
 20
48.609729660844096
 30
0
 40
4.99999961950946
100
AcDbArc
 50
153.4350629537999
 51
243.43506295380041
  0
LINE
  5
40
330
1F
100
AcDbEntity
  8
0
 62
7
100
AcDbLine
 10
7.777058559803339
 20
44.137589592017775
 30
0
 11
34.609899993730807
 21
30.721233135002194
 31
0
  0
ARC
  5
41
330
1F
100
AcDbEntity
  8
0
 62
7
100
AcDbCircle
 10
36.845959403233408
 20
35.193373373989971
 30
0
 40
5
100
AcDbArc
 50
243.43505859369921
 51
333.43505859370038
  0
LINE
  5
42
330
1F
100
AcDbEntity
  8
0
 62
7
100
AcDbLine
 10
41.318099642221327
 20
32.957313964487412
 30
0
 11
126.96412175604738
 21
204.25017862486402
 31
0
  0
ARC
  5
43
330
1F
100
AcDbEntity
  8
0
 62
7
100
AcDbCircle
 10
131.43626199503541
 20
202.01411921536146
 30
0
 40
5.00000000000006
100
AcDbArc
 50
63.435058593701392
 51
153.43505859370097
  0
LINE
  5
44
330
1F
100
AcDbEntity
  8
0
 62
7
100
AcDbLine
 10
133.67232140453791
 20
206.48625945434947
 30
0
 11
390.83251472360189
 21
77.9067786483688
 31
0
  0
ARC
  5
45
330
1F
100
AcDbEntity
  8
0
 62
7
100
AcDbCircle
 10
393.06857413310451
 20
82.3789188873568
 30
0
 40
5
100
AcDbArc
 50
243.43505859370023
 51
333.43505859369816
  0
LINE
  5
46
330
1F
100
AcDbEntity
  8
0
 62
7
100
AcDbLine
 10
397.54071437209245
 20
80.142859477854017
 30
0
 11
410.95707082910803
 21
106.97570091178159
 31
0
  0
ARC
  5
47
330
1F
100
AcDbEntity
  8
0
 62
7
100
AcDbCircle
 10
406.48493059012014
 20
109.21176032128415
 30
0
 40
4.99999999999989
100
AcDbArc
 50
333.43505859370021
 51
63.435058593700219
  0
LINE
  5
48
330
1F
100
AcDbEntity
  8
0
 62
7
100
AcDbLine
 10
408.72098999962276
 20
113.68390056027215
 30
0
 11
115.7836747686554
 21
260.15185664227351
 31
0
  0
ARC
  5
49
330
1F
100
AcDbEntity
  8
0
 62
7
100
AcDbCircle
 10
113.5476153591528
 20
255.67971640328551
 30
0
 40
5
100
AcDbArc
 50
63.435058593700361
 51
153.43505859369796
  0
LINE
  5
4A
330
1F
100
AcDbEntity
  8
0
 62
7
100
AcDbLine
 10
109.0754751201649
 20
257.9157758127883
 30
0
 11
5.5409773899982335
 21
50.845788559865468
 31
0
  0
CIRCLE
  5
4B
330
1F
100
AcDbEntity
  8
0
 62
7
100
AcDbCircle
 10
337.16681900367558
 20
111.44769549462262
 30
0
 40
2.545
  0
CIRCLE
  5
4C
330
1F
100
AcDbEntity
  8
0
 62
7
100
AcDbCircle
 10
347.76277931716976
 20
129.28372864638209
 30
0
 40
3.045
  0
CIRCLE
  5
4D
330
1F
100
AcDbEntity
  8
0
 62
7
100
AcDbCircle
 10
313.64039988071858
 20
131.63574733214114
 30
0
 40
3.045
  0
CIRCLE
  5
4E
330
1F
100
AcDbEntity
  8
0
 62
7
100
AcDbCircle
 10
92.45899657504313
 20
169.8931939929962
 30
0
 40
5.02
  0
CIRCLE
  5
4F
330
1F
100
AcDbEntity
  8
0
 62
7
100
AcDbCircle
 10
47.7378083848241
 20
80.45038921287437
 30
0
 40
5.02
  0
CIRCLE
  5
50
330
1F
100
AcDbEntity
  8
0
 62
7
100
AcDbCircle
 10
24.32396245006851
 20
43.690407698095214
 30
0
 40
2.545
  0
LINE
  5
51
330
1F
100
AcDbEntity
  8
0
 62
7
100
AcDbLine
 10
385.84413295480471
 20
113.50448311314608
 30
0
 11
382.26642076361441
 21
115.29333064074808
 31
0
  0
ARC
  5
52
330
1F
100
AcDbEntity
  8
0
 62
7
100
AcDbCircle
 10
379.58314947221129
 20
109.92676235396266
 30
0
 40
6
100
AcDbArc
 50
63.435058593699637
 51
243.43505859369915
  0
LINE
  5
53
330
1F
100
AcDbEntity
  8
0
 62
7
100
AcDbLine
 10
376.89987818080812
 20
104.56019406717724
 30
0
 11
380.47759037199887
 21
102.77134653957592
 31
0
  0
ARC
  5
54
330
1F
100
AcDbEntity
  8
0
 62
7
100
AcDbCircle
 10
383.16086153281464
 20
108.13791489165487
 30
0
 40
5.99999999999932
100
AcDbArc
 50
243.43505998790681
 51
63.435057199492945
  0
LINE
  5
55
330
1F
100
AcDbEntity
  8
0
 62
7
100
AcDbLine
 10
385.84413295480471
 20
113.50448311314608
 30
0
 11
385.84413295480471
 21
113.50448311314608
 31
0
  0
ARC
  5
56
330
1F
100
AcDbEntity
  8
0
 62
7
100
AcDbCircle
 10
517.17481840972937
 20
330.5925964146179
 30
0
 40
4.99999961950946
100
AcDbArc
 50
333.43506295370048
 51
63.435062953700495
  0
LINE
  5
57
330
1F
100
AcDbEntity
  8
0
 62
7
100
AcDbLine
 10
519.41087730875847
 20
335.06473648344036
 30
0
 11
492.57803587485427
 21
348.48109294050278
 31
0
  0
ARC
  5
58
330
1F
100
AcDbEntity
  8
0
 62
7
100
AcDbCircle
 10
490.34197646534386
 20
344.00895270151887
 30
0
 40
5
100
AcDbArc
 50
63.435058593599436
 51
153.43505859360118
  0
LINE
  5
59
330
1F
100
AcDbEntity
  8
0
 62
7
100
AcDbLine
 10
485.86983622635984
 20
346.24501211102915
 30
0
 11
400.22381411223495
 21
174.95214745080193
 31
0
  0
ARC
  5
5A
330
1F
100
AcDbEntity
  8
0
 62
7
100
AcDbCircle
 10
395.75167387325087
 20
177.18820686031245
 30
0
 40
5.00000000000006
100
AcDbArc
 50
243.43505859360175
 51
333.43505859359914
  0
LINE
  5
5B
330
1F
100
AcDbEntity
  8
0
 62
7
100
AcDbLine
 10
393.51561446374058
 20
172.71606662132831
 30
0
 11
136.35542114490079
 21
301.29554742775781
 31
0
  0
ARC
  5
5C
330
1F
100
AcDbEntity
  8
0
 62
7
100
AcDbCircle
 10
134.11936173539038
 20
296.82340718877367
 30
0
 40
5
100
AcDbArc
 50
63.435058593600594
 51
153.43505859360118
  0
LINE
  5
5D
330
1F
100
AcDbEntity
  8
0
 62
7
100
AcDbLine
 10
129.64722149640636
 20
299.05946659828396
 30
0
 11
116.23086503934394
 21
272.22662516438004
 31
0
  0
ARC
  5
5E
330
1F
100
AcDbEntity
  8
0
 62
7
100
AcDbCircle
 10
120.70300527832796
 20
269.99056575486952
 30
0
 40
4.99999999999989
100
AcDbArc
 50
153.43505859359885
 51
243.43505859359942
  0
LINE
  5
5F
330
1F
100
AcDbEntity
  8
0
 62
7
100
AcDbLine
 10
118.46694586881756
 20
265.51842551588561
 30
0
 11
411.40426109952944
 21
119.05046943337311
 31
0
  0
ARC
  5
60
330
1F
100
AcDbEntity
  8
0
 62
7
100
AcDbCircle
 10
413.64032050903984
 20
123.52260967235702
 30
0
 40
5
100
AcDbArc
 50
243.43505859359942
 51
333.4350585936009
  0
LINE
  5
61
330
1F
100
AcDbEntity
  8
0
 62
7
100
AcDbLine
 10
418.11246074802381
 20
121.28655026284673
 30
0
 11
521.64695847855182
 21
328.3565375155888
 31
0
  0
CIRCLE
  5
62
330
1F
100
AcDbEntity
  8
0
 62
7
100
AcDbCircle
 10
190.02111686476866
 20
267.75463058141008
 30
0
 40
2.545
  0
CIRCLE
  5
63
330
1F
100
AcDbEntity
  8
0
 62
7
100
AcDbCircle
 10
179.42515655124333
 20
249.91859742966926
 30
0
 40
3.045
  0
CIRCLE
  5
64
330
1F
100
AcDbEntity
  8
0
 62
7
100
AcDbCircle
 10
213.54753598769048
 20
247.56657874385064
 30
0
 40
3.045
  0
CIRCLE
  5
65
330
1F
100
AcDbEntity
  8
0
 62
7
100
AcDbCircle
 10
434.72893929329911
 20
209.30913208260972
 30
0
 40
5.02
  0
CIRCLE
  5
66
330
1F
100
AcDbEntity
  8
0
 62
7
100
AcDbCircle
 10
479.45012748367424
 20
298.75193686265357
 30
0
 40
5.02
  0
CIRCLE
  5
67
330
1F
100
AcDbEntity
  8
0
 62
7
100
AcDbCircle
 10
502.86397341849391
 20
335.51191837739179
 30
0
 40
2.545
  0
LINE
  5
68
330
1F
100
AcDbEntity
  8
0
 62
7
100
AcDbLine
 10
141.3438029136359
 20
265.69784296297166
 30
0
 11
144.92151510482313
 21
263.90899543536329
 31
0
  0
ARC
  5
69
330
1F
100
AcDbEntity
  8
0
 62
7
100
AcDbCircle
 10
147.60478639623562
 20
269.27556372214417
 30
0
 40
6
100
AcDbArc
 50
243.43505859360008
 51
63.435058593600111
  0
LINE
  5
6A
330
1F
100
AcDbEntity
  8
0
 62
7
100
AcDbLine
 10
150.28805768764812
 20
274.64213200892505
 30
0
 11
146.71034549646043
 21
276.4309795365325
 31
0
  0
ARC
  5
6B
330
1F
100
AcDbEntity
  8
0
 62
7
100
AcDbCircle
 10
144.02707433563535
 20
271.06441118445832
 30
0
 40
5.99999999999932
100
AcDbArc
 50
63.435059987806817
 51
243.43505719939338
  0
LINE
  5
6C
330
1F
100
AcDbEntity
  8
0
 62
7
100
AcDbLine
 10
141.3438029136359
 20
265.69784296297166
 30
0
 11
141.3438029136359
 21
265.69784296297166
 31
0
  0
ARC
  5
6D
330
1F
100
AcDbEntity
  8
0
 62
7
100
AcDbCircle
 10
10.012920224432149
 20
151.46885722493425
 30
0
 40
4.99999961950946
100
AcDbArc
 50
153.4350629537999
 51
243.43506295380041
  0
LINE
  5
6E
330
1F
100
AcDbEntity
  8
0
 62
7
100
AcDbLine
 10
7.7768613254108629
 20
146.99671715610793
 30
0
 11
34.609702759338333
 21
133.58036069909235
 31
0
  0
ARC
  5
6F
330
1F
100
AcDbEntity
  8
0
 62
7
100
AcDbCircle
 10
36.845762168840935
 20
138.05250093808013
 30
0
 40
5
100
AcDbArc
 50
243.43505859369921
 51
333.43505859370038
  0
LINE
  5
70
330
1F
100
AcDbEntity
  8
0
 62
7
100
AcDbLine
 10
41.317902407828853
 20
135.81644152857757
 30
0
 11
126.96392452165492
 21
307.10930618895418
 31
0
  0
ARC
  5
71
330
1F
100
AcDbEntity
  8
0
 62
7
100
AcDbCircle
 10
131.43606476064289
 20
304.87324677945162
 30
0
 40
5.00000000000006
100
AcDbArc
 50
63.435058593701392
 51
153.43505859370066
  0
LINE
  5
72
330
1F
100
AcDbEntity
  8
0
 62
7
100
AcDbLine
 10
133.67212417014539
 20
309.34538701843962
 30
0
 11
390.83231748920946
 21
180.76590621245896
 31
0
  0
ARC
  5
73
330
1F
100
AcDbEntity
  8
0
 62
7
100
AcDbCircle
 10
393.06837689871207
 20
185.23804645144696
 30
0
 40
5
100
AcDbArc
 50
243.43505859370023
 51
333.43505859369816
  0
LINE
  5
74
330
1F
100
AcDbEntity
  8
0
 62
7
100
AcDbLine
 10
397.5405171377
 20
183.00198704194418
 30
0
 11
410.9568735947156
 21
209.83482847587175
 31
0
  0
ARC
  5
75
330
1F
100
AcDbEntity
  8
0
 62
7
100
AcDbCircle
 10
406.48473335572766
 20
212.0708878853743
 30
0
 40
4.99999999999989
100
AcDbArc
 50
333.43505859370055
 51
63.435058593700219
  0
LINE
  5
76
330
1F
100
AcDbEntity
  8
0
 62
7
100
AcDbLine
 10
408.72079276523027
 20
216.54302812436231
 30
0
 11
115.78347753426293
 21
363.01098420636367
 31
0
  0
ARC
  5
77
330
1F
100
AcDbEntity
  8
0
 62
7
100
AcDbCircle
 10
113.54741812476033
 20
358.53884396737567
 30
0
 40
5
100
AcDbArc
 50
63.435058593700361
 51
153.43505859369796
  0
LINE
  5
78
330
1F
100
AcDbEntity
  8
0
 62
7
100
AcDbLine
 10
109.07527788577242
 20
360.77490337687846
 30
0
 11
5.5407801556057583
 21
153.70491612395563
 31
0
  0
CIRCLE
  5
79
330
1F
100
AcDbEntity
  8
0
 62
7
100
AcDbCircle
 10
337.1666217692831
 20
214.30682305871278
 30
0
 40
2.545
  0
CIRCLE
  5
7A
330
1F
100
AcDbEntity
  8
0
 62
7
100
AcDbCircle
 10
347.76258208277727
 20
232.14285621047225
 30
0
 40
3.045
  0
CIRCLE
  5
7B
330
1F
100
AcDbEntity
  8
0
 62
7
100
AcDbCircle
 10
313.64020264632609
 20
234.49487489623129
 30
0
 40
3.045
  0
CIRCLE
  5
7C
330
1F
100
AcDbEntity
  8
0
 62
7
100
AcDbCircle
 10
92.458799340650657
 20
272.75232155708636
 30
0
 40
5.02
  0
CIRCLE
  5
7D
330
1F
100
AcDbEntity
  8
0
 62
7
100
AcDbCircle
 10
47.737611150431626
 20
183.30951677696453
 30
0
 40
5.02
  0
CIRCLE
  5
7E
330
1F
100
AcDbEntity
  8
0
 62
7
100
AcDbCircle
 10
24.323765215676033
 20
146.54953526218537
 30
0
 40
2.545
  0
LINE
  5
7F
330
1F
100
AcDbEntity
  8
0
 62
7
100
AcDbLine
 10
385.84393572041222
 20
216.36361067723624
 30
0
 11
382.26622352922192
 21
218.15245820483824
 31
0
  0
ARC
  5
80
330
1F
100
AcDbEntity
  8
0
 62
7
100
AcDbCircle
 10
379.5829522378188
 20
212.78588991805282
 30
0
 40
6
100
AcDbArc
 50
63.435058593699637
 51
243.43505859369961
  0
LINE
  5
81
330
1F
100
AcDbEntity
  8
0
 62
7
100
AcDbLine
 10
376.89968094641569
 20
207.41932163126739
 30
0
 11
380.47739313760644
 21
205.63047410366607
 31
0
  0
ARC
  5
82
330
1F
100
AcDbEntity
  8
0
 62
7
100
AcDbCircle
 10
383.16066429842215
 20
210.99704245574503
 30
0
 40
5.99999999999932
100
AcDbArc
 50
243.43505998790729
 51
63.435057199492945
  0
LINE
  5
83
330
1F
100
AcDbEntity
  8
0
 62
7
100
AcDbLine
 10
385.84393572041222
 20
216.36361067723624
 30
0
 11
385.84393572041222
 21
216.36361067723624
 31
0
  0
ARC
  5
84
330
1F
100
AcDbEntity
  8
0
 62
7
100
AcDbCircle
 10
517.17462117533682
 20
433.45172397870806
 30
0
 40
4.99999961950946
100
AcDbArc
 50
333.43506295370048
 51
63.435062953700495
  0
LINE
  5
85
330
1F
100
AcDbEntity
  8
0
 62
7
100
AcDbLine
 10
519.41068007436593
 20
437.92386404753051
 30
0
 11
492.57783864046178
 21
451.34022050459293
 31
0
  0
ARC
  5
86
330
1F
100
AcDbEntity
  8
0
 62
7
100
AcDbCircle
 10
490.34177923095137
 20
446.868080265609
 30
0
 40
5
100
AcDbArc
 50
63.435058593599436
 51
153.43505859360118
  0
LINE
  5
87
330
1F
100
AcDbEntity
  8
0
 62
7
100
AcDbLine
 10
485.86963899196735
 20
449.10413967511931
 30
0
 11
400.2236168778424
 21
277.81127501489209
 31
0
  0
ARC
  5
88
330
1F
100
AcDbEntity
  8
0
 62
7
100
AcDbCircle
 10
395.75147663885832
 20
280.04733442440261
 30
0
 40
5.00000000000006
100
AcDbArc
 50
243.43505859360175
 51
333.43505859359914
  0
LINE
  5
89
330
1F
100
AcDbEntity
  8
0
 62
7
100
AcDbLine
 10
393.51541722934803
 20
275.57519418541847
 30
0
 11
136.35522391050827
 21
404.15467499184797
 31
0
  0
ARC
  5
8A
330
1F
100
AcDbEntity
  8
0
 62
7
100
AcDbCircle
 10
134.11916450099787
 20
399.68253475286383
 30
0
 40
5
100
AcDbArc
 50
63.435058593600594
 51
153.43505859360118
  0
LINE
  5
8B
330
1F
100
AcDbEntity
  8
0
 62
7
100
AcDbLine
 10
129.64702426201384
 20
401.91859416237412
 30
0
 11
116.23066780495141
 21
375.0857527284702
 31
0
  0
ARC
  5
8C
330
1F
100
AcDbEntity
  8
0
 62
7
100
AcDbCircle
 10
120.70280804393543
 20
372.84969331895968
 30
0
 40
4.99999999999989
100
AcDbArc
 50
153.43505859359885
 51
243.43505859359942
  0
LINE
  5
8D
330
1F
100
AcDbEntity
  8
0
 62
7
100
AcDbLine
 10
118.46674863442503
 20
368.37755307997577
 30
0
 11
411.40406386513689
 21
221.90959699746327
 31
0
  0
ARC
  5
8E
330
1F
100
AcDbEntity
  8
0
 62
7
100
AcDbCircle
 10
413.64012327464729
 20
226.38173723644718
 30
0
 40
5
100
AcDbArc
 50
243.43505859359942
 51
333.4350585936009
  0
LINE
  5
8F
330
1F
100
AcDbEntity
  8
0
 62
7
100
AcDbLine
 10
418.11226351363126
 20
224.14567782693689
 30
0
 11
521.64676124415928
 21
431.21566507967896
 31
0
  0
CIRCLE
  5
90
330
1F
100
AcDbEntity
  8
0
 62
7
100
AcDbCircle
 10
190.02091963037614
 20
370.61375814550024
 30
0
 40
2.545
  0
CIRCLE
  5
91
330
1F
100
AcDbEntity
  8
0
 62
7
100
AcDbCircle
 10
179.42495931685082
 20
352.77772499375942
 30
0
 40
3.045
  0
CIRCLE
  5
92
330
1F
100
AcDbEntity
  8
0
 62
7
100
AcDbCircle
 10
213.54733875329796
 20
350.4257063079408
 30
0
 40
3.045
  0
CIRCLE
  5
93
330
1F
100
AcDbEntity
  8
0
 62
7
100
AcDbCircle
 10
434.72874205890656
 20
312.16825964669988
 30
0
 40
5.02
  0
CIRCLE
  5
94
330
1F
100
AcDbEntity
  8
0
 62
7
100
AcDbCircle
 10
479.44993024928169
 20
401.61106442674372
 30
0
 40
5.02
  0
CIRCLE
  5
95
330
1F
100
AcDbEntity
  8
0
 62
7
100
AcDbCircle
 10
502.86377618410143
 20
438.37104594148195
 30
0
 40
2.545
  0
LINE
  5
96
330
1F
100
AcDbEntity
  8
0
 62
7
100
AcDbLine
 10
141.34360567924338
 20
368.55697052706182
 30
0
 11
144.92131787043061
 21
366.76812299945345
 31
0
  0
ARC
  5
97
330
1F
100
AcDbEntity
  8
0
 62
7
100
AcDbCircle
 10
147.60458916184311
 20
372.13469128623433
 30
0
 40
6
100
AcDbArc
 50
243.43505859360008
 51
63.435058593600111
  0
LINE
  5
98
330
1F
100
AcDbEntity
  8
0
 62
7
100
AcDbLine
 10
150.2878604532556
 20
377.5012595730152
 30
0
 11
146.71014826206792
 21
379.29010710062266
 31
0
  0
ARC
  5
99
330
1F
100
AcDbEntity
  8
0
 62
7
100
AcDbCircle
 10
144.02687710124283
 20
373.92353874854848
 30
0
 40
5.99999999999932
100
AcDbArc
 50
63.435059987806817
 51
243.43505719939338
  0
LINE
  5
9A
330
1F
100
AcDbEntity
  8
0
 62
7
100
AcDbLine
 10
141.34360567924338
 20
368.55697052706182
 30
0
 11
141.34360567924338
 21
368.55697052706182
 31
0
  0
ARC
  5
9B
330
1F
100
AcDbEntity
  8
0
 62
7
100
AcDbCircle
 10
10.012722990039624
 20
254.32798478902441
 30
0
 40
4.99999961950946
100
AcDbArc
 50
153.4350629537999
 51
243.43506295380041
  0
LINE
  5
9C
330
1F
100
AcDbEntity
  8
0
 62
7
100
AcDbLine
 10
7.7766640910183389
 20
249.85584472019809
 30
0
 11
34.60950552494581
 21
236.43948826318251
 31
0
  0
ARC
  5
9D
330
1F
100
AcDbEntity
  8
0
 62
7
100
AcDbCircle
 10
36.845564934448404
 20
240.91162850217029
 30
0
 40
5
100
AcDbArc
 50
243.4350585936993
 51
333.43505859370038
  0
LINE
  5
9E
330
1F
100
AcDbEntity
  8
0
 62
7
100
AcDbLine
 10
41.317705173436323
 20
238.67556909266773
 30
0
 11
126.96372728726239
 21
409.96843375304434
 31
0
  0
ARC
  5
9F
330
1F
100
AcDbEntity
  8
0
 62
7
100
AcDbCircle
 10
131.43586752625041
 20
407.73237434354178
 30
0
 40
5.00000000000006
100
AcDbArc
 50
63.435058593701392
 51
153.43505859370089
  0
LINE
  5
A0
330
1F
100
AcDbEntity
  8
0
 62
7
100
AcDbLine
 10
133.67192693575291
 20
412.20451458252978
 30
0
 11
390.83212025481691
 21
283.62503377654912
 31
0
  0
ARC
  5
A1
330
1F
100
AcDbEntity
  8
0
 62
7
100
AcDbCircle
 10
393.06817966431953
 20
288.09717401553712
 30
0
 40
5
100
AcDbArc
 50
243.43505859370023
 51
333.43505859369816
  0
LINE
  5
A2
330
1F
100
AcDbEntity
  8
0
 62
7
100
AcDbLine
 10
397.54031990330748
 20
285.86111460603433
 30
0
 11
410.95667636032306
 21
312.6939560399619
 31
0
  0
ARC
  5
A3
330
1F
100
AcDbEntity
  8
0
 62
7
100
AcDbCircle
 10
406.48453612133511
 20
314.93001544946446
 30
0
 40
4.99999999999989
100
AcDbArc
 50
333.43505859370055
 51
63.435058593700219
  0
LINE
  5
A4
330
1F
100
AcDbEntity
  8
0
 62
7
100
AcDbLine
 10
408.72059553083773
 20
319.40215568845247
 30
0
 11
115.78328029987041
 21
465.87011177045383
 31
0
  0
ARC
  5
A5
330
1F
100
AcDbEntity
  8
0
 62
7
100
AcDbCircle
 10
113.54722089036781
 20
461.39797153146583
 30
0
 40
5
100
AcDbArc
 50
63.435058593700361
 51
153.43505859369796
  0
LINE
  5
A6
330
1F
100
AcDbEntity
  8
0
 62
7
100
AcDbLine
 10
109.07508065137991
 20
463.63403094096861
 30
0
 11
5.5405829212132343
 21
256.56404368804579
 31
0
  0
CIRCLE
  5
A7
330
1F
100
AcDbEntity
  8
0
 62
7
100
AcDbCircle
 10
337.16642453489055
 20
317.16595062280294
 30
0
 40
2.545
  0
CIRCLE
  5
A8
330
1F
100
AcDbEntity
  8
0
 62
7
100
AcDbCircle
 10
347.76238484838473
 20
335.0019837745624
 30
0
 40
3.045
  0
CIRCLE
  5
A9
330
1F
100
AcDbEntity
  8
0
 62
7
100
AcDbCircle
 10
313.64000541193354
 20
337.35400246032145
 30
0
 40
3.045
  0
CIRCLE
  5
AA
330
1F
100
AcDbEntity
  8
0
 62
7
100
AcDbCircle
 10
92.458602106258127
 20
375.61144912117652
 30
0
 40
5.02
  0
CIRCLE
  5
AB
330
1F
100
AcDbEntity
  8
0
 62
7
100
AcDbCircle
 10
47.7374139160391
 20
286.16864434105469
 30
0
 40
5.02
  0
CIRCLE
  5
AC
330
1F
100
AcDbEntity
  8
0
 62
7
100
AcDbCircle
 10
24.323567981283507
 20
249.40866282627553
 30
0
 40
2.545
  0
LINE
  5
AD
330
1F
100
AcDbEntity
  8
0
 62
7
100
AcDbLine
 10
385.84373848601967
 20
319.2227382413264
 30
0
 11
382.26602629482937
 21
321.0115857689284
 31
0
  0
ARC
  5
AE
330
1F
100
AcDbEntity
  8
0
 62
7
100
AcDbCircle
 10
379.58275500342626
 20
315.645017482143
 30
0
 40
6
100
AcDbArc
 50
63.435058593699637
 51
243.43505859369961
  0
LINE
  5
AF
330
1F
100
AcDbEntity
  8
0
 62
7
100
AcDbLine
 10
376.89948371202314
 20
310.27844919535755
 30
0
 11
380.4771959032139
 21
308.48960166775623
 31
0
  0
ARC
  5
B0
330
1F
100
AcDbEntity
  8
0
 62
7
100
AcDbCircle
 10
383.1604670640296
 20
313.85617001983519
 30
0
 40
5.99999999999932
100
AcDbArc
 50
243.43505998790729
 51
63.435057199492945
  0
LINE
  5
B1
330
1F
100
AcDbEntity
  8
0
 62
7
100
AcDbLine
 10
385.84373848601967
 20
319.2227382413264
 30
0
 11
385.84373848601967
 21
319.2227382413264
 31
0
  0
ARC
  5
B2
330
1F
100
AcDbEntity
  8
0
 62
7
100
AcDbCircle
 10
517.17442394094439
 20
536.3108515427981
 30
0
 40
4.99999961950946
100
AcDbArc
 50
333.43506295370048
 51
63.435062953700495
  0
LINE
  5
B3
330
1F
100
AcDbEntity
  8
0
 62
7
100
AcDbLine
 10
519.4104828399735
 20
540.78299161162056
 30
0
 11
492.57764140606935
 21
554.199348068683
 31
0
  0
ARC
  5
B4
330
1F
100
AcDbEntity
  8
0
 62
7
100
AcDbCircle
 10
490.34158199655894
 20
549.72720782969907
 30
0
 40
5
100
AcDbArc
 50
63.435058593599436
 51
153.43505859360002
  0
LINE
  5
B5
330
1F
100
AcDbEntity
  8
0
 62
7
100
AcDbLine
 10
485.86944175757492
 20
551.96326723920947
 30
0
 11
400.22341964345
 21
380.67040257898248
 31
0
  0
ARC
  5
B6
330
1F
100
AcDbEntity
  8
0
 62
7
100
AcDbCircle
 10
395.75127940446589
 20
382.906461988493
 30
0
 40
5.00000000000006
100
AcDbArc
 50
243.43505859360175
 51
333.43505859359914
  0
LINE
  5
B7
330
1F
100
AcDbEntity
  8
0
 62
7
100
AcDbLine
 10
393.5152199949556
 20
378.43432174950885
 30
0
 11
136.35502667611587
 21
507.013802555938
 31
0
  0
ARC
  5
B8
330
1F
100
AcDbEntity
  8
0
 62
7
100
AcDbCircle
 10
134.11896726660547
 20
502.541662316954
 30
0
 40
5
100
AcDbArc
 50
63.435058593600012
 51
153.43505859360002
  0
LINE
  5
B9
330
1F
100
AcDbEntity
  8
0
 62
7
100
AcDbLine
 10
129.64682702762144
 20
504.77772172646439
 30
0
 11
116.230470570559
 21
477.94488029256024
 31
0
  0
ARC
  5
BA
330
1F
100
AcDbEntity
  8
0
 62
7
100
AcDbCircle
 10
120.70261080954303
 20
475.70882088305007
 30
0
 40
4.99999999999989
100
AcDbArc
 50
153.43505859360235
 51
243.43505859360059
  0
LINE
  5
BB
330
1F
100
AcDbEntity
  8
0
 62
7
100
AcDbLine
 10
118.46655140003263
 20
471.23668064406593
 30
0
 11
411.40386663074446
 21
324.76872456155343
 31
0
  0
ARC
  5
BC
330
1F
100
AcDbEntity
  8
0
 62
7
100
AcDbCircle
 10
413.63992604025486
 20
329.24086480053757
 30
0
 40
5
100
AcDbArc
 50
243.43505859360059
 51
333.43505859359857
  0
LINE
  5
BD
330
1F
100
AcDbEntity
  8
0
 62
7
100
AcDbLine
 10
418.11206627923883
 20
327.00480539102705
 30
0
 11
521.64656400976685
 21
534.074792643769
 31
0
  0
CIRCLE
  5
BE
330
1F
100
AcDbEntity
  8
0
 62
7
100
AcDbCircle
 10
190.02072239598371
 20
473.47288570959063
 30
0
 40
2.545
  0
CIRCLE
  5
BF
330
1F
100
AcDbEntity
  8
0
 62
7
100
AcDbCircle
 10
179.42476208245839
 20
455.63685255784981
 30
0
 40
3.045
  0
CIRCLE
  5
C0
330
1F
100
AcDbEntity
  8
0
 62
7
100
AcDbCircle
 10
213.54714151890553
 20
453.28483387203119
 30
0
 40
3.045
  0
CIRCLE
  5
C1
330
1F
100
AcDbEntity
  8
0
 62
7
100
AcDbCircle
 10
434.72854482451413
 20
415.02738721079004
 30
0
 40
5.02
  0
CIRCLE
  5
C2
330
1F
100
AcDbEntity
  8
0
 62
7
100
AcDbCircle
 10
479.44973301488932
 20
504.47019199083377
 30
0
 40
5.02
  0
CIRCLE
  5
C3
330
1F
100
AcDbEntity
  8
0
 62
7
100
AcDbCircle
 10
502.863578949709
 20
541.23017350557211
 30
0
 40
2.545
  0
LINE
  5
C4
330
1F
100
AcDbEntity
  8
0
 62
7
100
AcDbLine
 10
141.34340844485095
 20
471.41609809115221
 30
0
 11
144.92112063603818
 21
469.62725056354384
 31
0
  0
ARC
  5
C5
330
1F
100
AcDbEntity
  8
0
 62
7
100
AcDbCircle
 10
147.60439192745068
 20
474.99381885032471
 30
0
 40
6
100
AcDbArc
 50
243.43505859360008
 51
63.435058593598647
  0
LINE
  5
C6
330
1F
100
AcDbEntity
  8
0
 62
7
100
AcDbLine
 10
150.28766321886317
 20
480.36038713710525
 30
0
 11
146.70995102767549
 21
482.14923466471271
 31
0
  0
ARC
  5
C7
330
1F
100
AcDbEntity
  8
0
 62
7
100
AcDbCircle
 10
144.0266798668504
 20
476.78266631263853
 30
0
 40
5.99999999999932
100
AcDbArc
 50
63.435059987806817
 51
243.43505719939196
  0
LINE
  5
C8
330
1F
100
AcDbEntity
  8
0
 62
7
100
AcDbLine
 10
141.34340844485095
 20
471.41609809115221
 30
0
 11
141.34340844485095
 21
471.41609809115221
 31
0
  0
ARC
  5
C9
330
1F
100
AcDbEntity
  8
0
 62
7
100
AcDbCircle
 10
10.012525755647198
 20
357.18711235311457
 30
0
 40
4.99999961950946
100
AcDbArc
 50
153.4350629537999
 51
243.43506295380041
  0
LINE
  5
CA
330
1F
100
AcDbEntity
  8
0
 62
7
100
AcDbLine
 10
7.7764668566259134
 20
352.71497228428825
 30
0
 11
34.609308290553386
 21
339.29861582727267
 31
0
  0
ARC
  5
CB
330
1F
100
AcDbEntity
  8
0
 62
7
100
AcDbCircle
 10
36.845367700055981
 20
343.77075606626045
 30
0
 40
5
100
AcDbArc
 50
243.4350585936993
 51
333.43505859370038
  0
LINE
  5
CC
330
1F
100
AcDbEntity
  8
0
 62
7
100
AcDbLine
 10
41.3175079390439
 20
341.53469665675789
 30
0
 11
126.96353005286996
 21
512.8275613171345
 31
0
  0
ARC
  5
CD
330
1F
100
AcDbEntity
  8
0
 62
7
100
AcDbCircle
 10
131.43567029185797
 20
510.59150190763182
 30
0
 40
5.00000000000006
100
AcDbArc
 50
63.435058593701392
 51
153.43505859369972
  0
LINE
  5
CE
330
1F
100
AcDbEntity
  8
0
 62
7
100
AcDbLine
 10
133.67172970136048
 20
515.06364214661983
 30
0
 11
390.83192302042448
 21
386.48416134063928
 31
0
  0
ARC
  5
CF
330
1F
100
AcDbEntity
  8
0
 62
7
100
AcDbCircle
 10
393.0679824299271
 20
390.95630157962728
 30
0
 40
5
100
AcDbArc
 50
243.43505859370023
 51
333.43505859369816
  0
LINE
  5
D0
330
1F
100
AcDbEntity
  8
0
 62
7
100
AcDbLine
 10
397.54012266891505
 20
388.72024217012449
 30
0
 11
410.95647912593063
 21
415.55308360405206
 31
0
  0
ARC
  5
D1
330
1F
100
AcDbEntity
  8
0
 62
7
100
AcDbCircle
 10
406.48433888694274
 20
417.78914301355462
 30
0
 40
4.99999999999989
100
AcDbArc
 50
333.43505859370021
 51
63.435058593700219
  0
LINE
  5
D2
330
1F
100
AcDbEntity
  8
0
 62
7
100
AcDbLine
 10
408.72039829644535
 20
422.26128325254263
 30
0
 11
115.78308306547798
 21
568.72923933454388
 31
0
  0
ARC
  5
D3
330
1F
100
AcDbEntity
  8
0
 62
7
100
AcDbCircle
 10
113.54702365597538
 20
564.257099095556
 30
0
 40
5
100
AcDbArc
 50
63.435058593699793
 51
153.43505859370029
  0
LINE
  5
D4
330
1F
100
AcDbEntity
  8
0
 62
7
100
AcDbLine
 10
109.07488341698748
 20
566.49315850505855
 30
0
 11
5.5403856868208088
 21
359.42317125213594
 31
0
  0
CIRCLE
  5
D5
330
1F
100
AcDbEntity
  8
0
 62
7
100
AcDbCircle
 10
337.16622730049818
 20
420.0250781868931
 30
0
 40
2.545
  0
CIRCLE
  5
D6
330
1F
100
AcDbEntity
  8
0
 62
7
100
AcDbCircle
 10
347.76218761399235
 20
437.86111133865256
 30
0
 40
3.045
  0
CIRCLE
  5
D7
330
1F
100
AcDbEntity
  8
0
 62
7
100
AcDbCircle
 10
313.63980817754117
 20
440.21313002441161
 30
0
 40
3.045
  0
CIRCLE
  5
D8
330
1F
100
AcDbEntity
  8
0
 62
7
100
AcDbCircle
 10
92.45840487186571
 20
478.47057668526668
 30
0
 40
5.02
  0
CIRCLE
  5
D9
330
1F
100
AcDbEntity
  8
0
 62
7
100
AcDbCircle
 10
47.737216681646672
 20
389.02777190514485
 30
0
 40
5.02
  0
CIRCLE
  5
DA
330
1F
100
AcDbEntity
  8
0
 62
7
100
AcDbCircle
 10
24.323370746891086
 20
352.26779039036569
 30
0
 40
2.545
  0
LINE
  5
DB
330
1F
100
AcDbEntity
  8
0
 62
7
100
AcDbLine
 10
385.8435412516273
 20
422.08186580541656
 30
0
 11
382.265829060437
 21
423.87071333301856
 31
0
  0
ARC
  5
DC
330
1F
100
AcDbEntity
  8
0
 62
7
100
AcDbCircle
 10
379.58255776903388
 20
418.50414504623313
 30
0
 40
6
100
AcDbArc
 50
63.435058593699637
 51
243.43505859369915
  0
LINE
  5
DD
330
1F
100
AcDbEntity
  8
0
 62
7
100
AcDbLine
 10
376.89928647763071
 20
413.13757675944771
 30
0
 11
380.47699866882147
 21
411.34872923184639
 31
0
  0
ARC
  5
DE
330
1F
100
AcDbEntity
  8
0
 62
7
100
AcDbCircle
 10
383.16026982963717
 20
416.71529758392535
 30
0
 40
5.99999999999932
100
AcDbArc
 50
243.43505998790729
 51
63.435057199492448
  0
LINE
  5
DF
330
1F
100
AcDbEntity
  8
0
 62
7
100
AcDbLine
 10
385.8435412516273
 20
422.08186580541656
 30
0
 11
385.8435412516273
 21
422.08186580541656
 31
0
  0
ARC
  5
E0
330
1F
100
AcDbEntity
  8
0
 62
7
100
AcDbCircle
 10
517.174226706552
 20
639.16997910688838
 30
0
 40
4.99999961950946
100
AcDbArc
 50
333.43506295370048
 51
63.435062953700495
  0
LINE
  5
E1
330
1F
100
AcDbEntity
  8
0
 62
7
100
AcDbLine
 10
519.41028560558107
 20
643.64211917571083
 30
0
 11
492.5774441716768
 21
657.05847563277325
 31
0
  0
ARC
  5
E2
330
1F
100
AcDbEntity
  8
0
 62
7
100
AcDbCircle
 10
490.3413847621664
 20
652.58633539378934
 30
0
 40
5
100
AcDbArc
 50
63.435058593599436
 51
153.43505859360002
  0
LINE
  5
E3
330
1F
100
AcDbEntity
  8
0
 62
7
100
AcDbLine
 10
485.86924452318237
 20
654.82239480329974
 30
0
 11
400.22322240905748
 21
483.52953014307241
 31
0
  0
ARC
  5
E4
330
1F
100
AcDbEntity
  8
0
 62
7
100
AcDbCircle
 10
395.7510821700734
 20
485.76558955258292
 30
0
 40
5.00000000000006
100
AcDbArc
 50
243.43505859360175
 51
333.43505859359914
  0
LINE
  5
E5
330
1F
100
AcDbEntity
  8
0
 62
7
100
AcDbLine
 10
393.51502276056311
 20
481.29344931359879
 30
0
 11
136.35482944172333
 21
609.87293012002829
 31
0
  0
ARC
  5
E6
330
1F
100
AcDbEntity
  8
0
 62
7
100
AcDbCircle
 10
134.11877003221292
 20
605.40078988104426
 30
0
 40
5
100
AcDbArc
 50
63.435058593600012
 51
153.43505859360002
  0
LINE
  5
E7
330
1F
100
AcDbEntity
  8
0
 62
7
100
AcDbLine
 10
129.6466297932289
 20
607.63684929055466
 30
0
 11
116.23027333616648
 21
580.80400785665063
 31
0
  0
ARC
  5
E8
330
1F
100
AcDbEntity
  8
0
 62
7
100
AcDbCircle
 10
120.7024135751505
 20
578.56794844714011
 30
0
 40
4.99999999999989
100
AcDbArc
 50
153.43505859359885
 51
243.43505859359942
  0
LINE
  5
E9
330
1F
100
AcDbEntity
  8
0
 62
7
100
AcDbLine
 10
118.4663541656401
 20
574.0958082081562
 30
0
 11
411.403669396352
 21
427.62785212564381
 31
0
  0
ARC
  5
EA
330
1F
100
AcDbEntity
  8
0
 62
7
100
AcDbCircle
 10
413.63972880586238
 20
432.09999236462772
 30
0
 40
5
100
AcDbArc
 50
243.43505859359942
 51
333.4350585936009
  0
LINE
  5
EB
330
1F
100
AcDbEntity
  8
0
 62
7
100
AcDbLine
 10
418.11186904484634
 20
429.86393295511743
 30
0
 11
521.64636677537442
 21
636.93392020785927
 31
0
  0
CIRCLE
  5
EC
330
1F
100
AcDbEntity
  8
0
 62
7
100
AcDbCircle
 10
190.02052516159119
 20
576.33201327368079
 30
0
 40
2.545
  0
CIRCLE
  5
ED
330
1F
100
AcDbEntity
  8
0
 62
7
100
AcDbCircle
 10
179.42456484806587
 20
558.49598012194
 30
0
 40
3.045
  0
CIRCLE
  5
EE
330
1F
100
AcDbEntity
  8
0
 62
7
100
AcDbCircle
 10
213.54694428451302
 20
556.14396143612123
 30
0
 40
3.045
  0
CIRCLE
  5
EF
330
1F
100
AcDbEntity
  8
0
 62
7
100
AcDbCircle
 10
434.72834759012164
 20
517.88651477488008
 30
0
 40
5.02
  0
CIRCLE
  5
F0
330
1F
100
AcDbEntity
  8
0
 62
7
100
AcDbCircle
 10
479.44953578049677
 20
607.329319554924
 30
0
 40
5.02
  0
CIRCLE
  5
F1
330
1F
100
AcDbEntity
  8
0
 62
7
100
AcDbCircle
 10
502.86338171531645
 20
644.08930106966238
 30
0
 40
2.545
  0
LINE
  5
F2
330
1F
100
AcDbEntity
  8
0
 62
7
100
AcDbLine
 10
141.34321121045843
 20
574.27522565524225
 30
0
 11
144.92092340164567
 21
572.48637812763388
 31
0
  0
ARC
  5
F3
330
1F
100
AcDbEntity
  8
0
 62
7
100
AcDbCircle
 10
147.60419469305816
 20
577.85294641441476
 30
0
 40
6
100
AcDbArc
 50
243.43505859360008
 51
63.435058593600111
  0
LINE
  5
F4
330
1F
100
AcDbEntity
  8
0
 62
7
100
AcDbLine
 10
150.28746598447066
 20
583.21951470119564
 30
0
 11
146.70975379328297
 21
585.00836222880309
 31
0
  0
ARC
  5
F5
330
1F
100
AcDbEntity
  8
0
 62
7
100
AcDbCircle
 10
144.02648263245788
 20
579.6417938767288
 30
0
 40
5.99999999999932
100
AcDbArc
 50
63.4350599878073
 51
243.43505719939287
  0
LINE
  5
F6
330
1F
100
AcDbEntity
  8
0
 62
7
100
AcDbLine
 10
141.34321121045843
 20
574.27522565524225
 30
0
 11
141.34321121045843
 21
574.27522565524225
 31
0
  0
ARC
  5
F7
330
1F
100
AcDbEntity
  8
0
 62
7
100
AcDbCircle
 10
10.012328521254716
 20
460.04623991720496
 30
0
 40
4.99999961950946
100
AcDbArc
 50
153.4350629537999
 51
243.43506295380044
  0
LINE
  5
F8
330
1F
100
AcDbEntity
  8
0
 62
7
100
AcDbLine
 10
7.776269622233432
 20
455.57409984837864
 30
0
 11
34.609111056160906
 21
442.15774339136306
 31
0
  0
ARC
  5
F9
330
1F
100
AcDbEntity
  8
0
 62
7
100
AcDbCircle
 10
36.8451704656635
 20
446.62988363035083
 30
0
 40
5
100
AcDbArc
 50
243.4350585936993
 51
333.43505859370038
  0
LINE
  5
FA
330
1F
100
AcDbEntity
  8
0
 62
7
100
AcDbLine
 10
41.317310704651419
 20
444.39382422084827
 30
0
 11
126.96333281847748
 21
615.68668888122488
 31
0
  0
ARC
  5
FB
330
1F
100
AcDbEntity
  8
0
 62
7
100
AcDbCircle
 10
131.43547305746549
 20
613.45062947172221
 30
0
 40
5.00000000000006
100
AcDbArc
 50
63.435058593701392
 51
153.43505859369964
  0
LINE
  5
FC
330
1F
100
AcDbEntity
  8
0
 62
7
100
AcDbLine
 10
133.671532466968
 20
617.92276971071021
 30
0
 11
390.83172578603205
 21
489.34328890472943
 31
0
  0
ARC
  5
FD
330
1F
100
AcDbEntity
  8
0
 62
7
100
AcDbCircle
 10
393.06778519553467
 20
493.81542914371732
 30
0
 40
5
100
AcDbArc
 50
243.43505859369961
 51
333.43505859370055
  0
LINE
  5
FE
330
1F
100
AcDbEntity
  8
0
 62
7
100
AcDbLine
 10
397.53992543452262
 20
491.57936973421477
 30
0
 11
410.9562818915382
 21
518.41221116814222
 31
0
  0
ARC
  5
FF
330
1F
100
AcDbEntity
  8
0
 62
7
100
AcDbCircle
 10
406.48414165255025
 20
520.64827057764478
 30
0
 40
4.99999999999989
100
AcDbArc
 50
333.43505859370055
 51
63.435058593700219
  0
LINE
  5
100
330
1F
100
AcDbEntity
  8
0
 62
7
100
AcDbLine
 10
408.72020106205287
 20
525.12041081663278
 30
0
 11
115.78288583108549
 21
671.58836689863426
 31
0
  0
ARC
  5
101
330
1F
100
AcDbEntity
  8
0
 62
7
100
AcDbCircle
 10
113.54682642158289
 20
667.11622665964637
 30
0
 40
5
100
AcDbArc
 50
63.435058593699793
 51
153.43505859370029
  0
LINE
  5
102
330
1F
100
AcDbEntity
  8
0
 62
7
100
AcDbLine
 10
109.07468618259499
 20
669.35228606914893
 30
0
 11
5.5401884524283265
 21
462.28229881622633
 31
0
  0
CIRCLE
  5
103
330
1F
100
AcDbEntity
  8
0
 62
7
100
AcDbCircle
 10
337.16603006610569
 20
522.88420575098337
 30
0
 40
2.545
  0
CIRCLE
  5
104
330
1F
100
AcDbEntity
  8
0
 62
7
100
AcDbCircle
 10
347.76199037959987
 20
540.72023890274261
 30
0
 40
3.045
  0
CIRCLE
  5
105
330
1F
100
AcDbEntity
  8
0
 62
7
100
AcDbCircle
 10
313.63961094314868
 20
543.07225758850177
 30
0
 40
3.045
  0
CIRCLE
  5
106
330
1F
100
AcDbEntity
  8
0
 62
7
100
AcDbCircle
 10
92.458207637473222
 20
581.32970424935706
 30
0
 40
5.02
  0
CIRCLE
  5
107
330
1F
100
AcDbEntity
  8
0
 62
7
100
AcDbCircle
 10
47.737019447254191
 20
491.88689946923512
 30
0
 40
5.02
  0
CIRCLE
  5
108
330
1F
100
AcDbEntity
  8
0
 62
7
100
AcDbCircle
 10
24.323173512498602
 20
455.12691795445608
 30
0
 40
2.545
  0
LINE
  5
109
330
1F
100
AcDbEntity
  8
0
 62
7
100
AcDbLine
 10
385.84334401723481
 20
524.94099336950671
 30
0
 11
382.26563182604451
 21
526.72984089710883
 31
0
  0
ARC
  5
10A
330
1F
100
AcDbEntity
  8
0
 62
7
100
AcDbCircle
 10
379.5823605346414
 20
521.36327261032329
 30
0
 40
6
100
AcDbArc
 50
63.43505859370012
 51
243.43505859369961
  0
LINE
  5
10B
330
1F
100
AcDbEntity
  8
0
 62
7
100
AcDbLine
 10
376.89908924323828
 20
515.99670432353787
 30
0
 11
380.47680143442903
 21
514.20785679593666
 31
0
  0
ARC
  5
10C
330
1F
100
AcDbEntity
  8
0
 62
7
100
AcDbCircle
 10
383.16007259524474
 20
519.57442514801551
 30
0
 40
5.99999999999932
100
AcDbArc
 50
243.43505998790681
 51
63.435057199492945
  0
LINE
  5
10D
330
1F
100
AcDbEntity
  8
0
 62
7
100
AcDbLine
 10
385.84334401723481
 20
524.94099336950671
 30
0
 11
385.84334401723481
 21
524.94099336950671
 31
0
  0
ARC
  5
10E
330
1F
100
AcDbEntity
  8
0
 62
7
100
AcDbCircle
 10
517.17402947215953
 20
742.02910667097865
 30
0
 40
4.99999961950946
100
AcDbArc
 50
333.43506295370048
 51
63.435062953700495
  0
LINE
  5
10F
330
1F
100
AcDbEntity
  8
0
 62
7
100
AcDbLine
 10
519.41008837118864
 20
746.5012467398011
 30
0
 11
492.57724693728443
 21
759.91760319686352
 31
0
  0
ARC
  5
110
330
1F
100
AcDbEntity
  8
0
 62
7
100
AcDbCircle
 10
490.341187527774
 20
755.44546295787961
 30
0
 40
5
100
AcDbArc
 50
63.435058593599436
 51
153.43505859360002
  0
LINE
  5
111
330
1F
100
AcDbEntity
  8
0
 62
7
100
AcDbLine
 10
485.86904728879
 20
757.68152236739
 30
0
 11
400.22302517466505
 21
586.38865770716279
 31
0
  0
ARC
  5
112
330
1F
100
AcDbEntity
  8
0
 62
7
100
AcDbCircle
 10
395.750884935681
 20
588.6247171166732
 30
0
 40
5.00000000000006
100
AcDbArc
 50
243.43505859360118
 51
333.43505859360027
  0
LINE
  5
113
330
1F
100
AcDbEntity
  8
0
 62
7
100
AcDbLine
 10
393.51482552617068
 20
584.15257687768917
 30
0
 11
136.35463220733092
 21
712.73205768411856
 31
0
  0
ARC
  5
114
330
1F
100
AcDbEntity
  8
0
 62
7
100
AcDbCircle
 10
134.11857279782052
 20
708.25991744513453
 30
0
 40
5
100
AcDbArc
 50
63.435058593600012
 51
153.43505859360002
  0
LINE
  5
115
330
1F
100
AcDbEntity
  8
0
 62
7
100
AcDbLine
 10
129.64643255883649
 20
710.49597685464494
 30
0
 11
116.23007610177406
 21
683.66313542074079
 31
0
  0
ARC
  5
116
330
1F
100
AcDbEntity
  8
0
 62
7
100
AcDbCircle
 10
120.70221634075808
 20
681.4270760112305
 30
0
 40
4.99999999999989
100
AcDbArc
 50
153.43505859360118
 51
243.43505859359996
  0
LINE
  5
117
330
1F
100
AcDbEntity
  8
0
 62
7
100
AcDbLine
 10
118.46615693124768
 20
676.95493577224647
 30
0
 11
411.40347216195954
 21
530.48697968973386
 31
0
  0
ARC
  5
118
330
1F
100
AcDbEntity
  8
0
 62
7
100
AcDbCircle
 10
413.63953157146994
 20
534.95911992871788
 30
0
 40
5
100
AcDbArc
 50
243.43505859359996
 51
333.43505859359857
  0
LINE
  5
119
330
1F
100
AcDbEntity
  8
0
 62
7
100
AcDbLine
 10
418.11167181045391
 20
532.72306051920737
 30
0
 11
521.646169540982
 21
739.79304777194955
 31
0
  0
CIRCLE
  5
11A
330
1F
100
AcDbEntity
  8
0
 62
7
100
AcDbCircle
 10
190.02032792719879
 20
679.19114083777106
 30
0
 40
2.545
  0
CIRCLE
  5
11B
330
1F
100
AcDbEntity
  8
0
 62
7
100
AcDbCircle
 10
179.42436761367347
 20
661.35510768603024
 30
0
 40
3.045
  0
CIRCLE
  5
11C
330
1F
100
AcDbEntity
  8
0
 62
7
100
AcDbCircle
 10
213.54674705012062
 20
659.00308900021162
 30
0
 40
3.045
  0
CIRCLE
  5
11D
330
1F
100
AcDbEntity
  8
0
 62
7
100
AcDbCircle
 10
434.72815035572921
 20
620.74564233897036
 30
0
 40
5.02
  0
CIRCLE
  5
11E
330
1F
100
AcDbEntity
  8
0
 62
7
100
AcDbCircle
 10
479.44933854610434
 20
710.18844711901431
 30
0
 40
5.02
  0
CIRCLE
  5
11F
330
1F
100
AcDbEntity
  8
0
 62
7
100
AcDbCircle
 10
502.86318448092408
 20
746.94842863375266
 30
0
 40
2.545
  0
LINE
  5
120
330
1F
100
AcDbEntity
  8
0
 62
7
100
AcDbLine
 10
141.34301397606603
 20
677.13435321933252
 30
0
 11
144.92072616725326
 21
675.34550569172427
 31
0
  0
ARC
  5
121
330
1F
100
AcDbEntity
  8
0
 62
7
100
AcDbCircle
 10
147.60399745866576
 20
680.712073978505
 30
0
 40
6
100
AcDbArc
 50
243.43505859359962
 51
63.435058593599628
  0
LINE
  5
122
330
1F
100
AcDbEntity
  8
0
 62
7
100
AcDbLine
 10
150.28726875007825
 20
686.07864226528579
 30
0
 11
146.70955655889057
 21
687.86748979289325
 31
0
  0
ARC
  5
123
330
1F
100
AcDbEntity
  8
0
 62
7
100
AcDbCircle
 10
144.02628539806548
 20
682.50092144081907
 30
0
 40
5.99999999999932
100
AcDbArc
 50
63.435059987806817
 51
243.43505719939287
  0
LINE
  5
124
330
1F
100
AcDbEntity
  8
0
 62
7
100
AcDbLine
 10
141.34301397606603
 20
677.13435321933252
 30
0
 11
141.34301397606603
 21
677.13435321933252
 31
0
  0
ARC
  5
125
330
1F
100
AcDbEntity
  8
0
 62
7
100
AcDbCircle
 10
10.012131286862241
 20
562.90536748129534
 30
0
 40
4.99999961950946
100
AcDbArc
 50
153.43506295380107
 51
243.435062953801
  0
LINE
  5
126
330
1F
100
AcDbEntity
  8
0
 62
7
100
AcDbLine
 10
7.7760723878409559
 20
558.43322741246891
 30
0
 11
34.608913821768425
 21
545.01687095545333
 31
0
  0
ARC
  5
127
330
1F
100
AcDbEntity
  8
0
 62
7
100
AcDbCircle
 10
36.84497323127102
 20
549.48901119444122
 30
0
 40
5
100
AcDbArc
 50
243.43505859369981
 51
333.43505859370038
  0
LINE
  5
128
330
1F
100
AcDbEntity
  8
0
 62
7
100
AcDbLine
 10
41.317113470258938
 20
547.25295178493866
 30
0
 11
126.96313558408501
 21
718.54581644531527
 31
0
  0
ARC
  5
129
330
1F
100
AcDbEntity
  8
0
 62
7
100
AcDbCircle
 10
131.435275823073
 20
716.30975703581259
 30
0
 40
5.00000000000006
100
AcDbArc
 50
63.435058593701392
 51
153.43505859369955
  0
LINE
  5
12A
330
1F
100
AcDbEntity
  8
0
 62
7
100
AcDbLine
 10
133.6713352325755
 20
720.7818972748006
 30
0
 11
390.83152855163956
 21
592.20241646881982
 31
0
  0
ARC
  5
12B
330
1F
100
AcDbEntity
  8
0
 62
7
100
AcDbCircle
 10
393.06758796114218
 20
596.67455670780771
 30
0
 40
5
100
AcDbArc
 50
243.43505859369961
 51
333.43505859370055
  0
LINE
  5
12C
330
1F
100
AcDbEntity
  8
0
 62
7
100
AcDbLine
 10
397.53972820013013
 20
594.43849729830515
 30
0
 11
410.95608465714571
 21
621.27133873223261
 31
0
  0
ARC
  5
12D
330
1F
100
AcDbEntity
  8
0
 62
7
100
AcDbCircle
 10
406.48394441815776
 20
623.50739814173517
 30
0
 40
4.99999999999989
100
AcDbArc
 50
333.43505859370055
 51
63.435058593700219
  0
LINE
  5
12E
330
1F
100
AcDbEntity
  8
0
 62
7
100
AcDbLine
 10
408.72000382766038
 20
627.97953838072317
 30
0
 11
115.78268859669303
 21
774.44749446272465
 31
0
  0
ARC
  5
12F
330
1F
100
AcDbEntity
  8
0
 62
7
100
AcDbCircle
 10
113.54662918719043
 20
769.97535422373676
 30
0
 40
5
100
AcDbArc
 50
63.435058593699793
 51
153.43505859370029
  0
LINE
  5
130
330
1F
100
AcDbEntity
  8
0
 62
7
100
AcDbLine
 10
109.07448894820253
 20
772.21141363323932
 30
0
 11
5.5399912180358513
 21
565.1414263803166
 31
0
  0
CIRCLE
  5
131
330
1F
100
AcDbEntity
  8
0
 62
7
100
AcDbCircle
 10
337.1658328317132
 20
625.74333331507376
 30
0
 40
2.545
  0
CIRCLE
  5
132
330
1F
100
AcDbEntity
  8
0
 62
7
100
AcDbCircle
 10
347.76179314520738
 20
643.579366466833
 30
0
 40
3.045
  0
CIRCLE
  5
133
330
1F
100
AcDbEntity
  8
0
 62
7
100
AcDbCircle
 10
313.63941370875619
 20
645.93138515259216
 30
0
 40
3.045
  0
CIRCLE
  5
134
330
1F
100
AcDbEntity
  8
0
 62
7
100
AcDbCircle
 10
92.458010403080749
 20
684.18883181344745
 30
0
 40
5.02
  0
CIRCLE
  5
135
330
1F
100
AcDbEntity
  8
0
 62
7
100
AcDbCircle
 10
47.736822212861718
 20
594.7460270333255
 30
0
 40
5.02
  0
CIRCLE
  5
136
330
1F
100
AcDbEntity
  8
0
 62
7
100
AcDbCircle
 10
24.322976278106125
 20
557.98604551854623
 30
0
 40
2.545
  0
LINE
  5
137
330
1F
100
AcDbEntity
  8
0
 62
7
100
AcDbLine
 10
385.84314678284233
 20
627.8001209335971
 30
0
 11
382.265434591652
 21
629.58896846119922
 31
0
  0
ARC
  5
138
330
1F
100
AcDbEntity
  8
0
 62
7
100
AcDbCircle
 10
379.58216330024891
 20
624.22240017441368
 30
0
 40
6
100
AcDbArc
 50
63.43505859370012
 51
243.43505859369961
  0
LINE
  5
139
330
1F
100
AcDbEntity
  8
0
 62
7
100
AcDbLine
 10
376.89889200884579
 20
618.85583188762826
 30
0
 11
380.47660420003655
 21
617.066984360027
 31
0
  0
ARC
  5
13A
330
1F
100
AcDbEntity
  8
0
 62
7
100
AcDbCircle
 10
383.15987536085225
 20
622.43355271210589
 30
0
 40
5.99999999999932
100
AcDbArc
 50
243.43505998790681
 51
63.435057199492945
  0
LINE
  5
13B
330
1F
100
AcDbEntity
  8
0
 62
7
100
AcDbLine
 10
385.84314678284233
 20
627.8001209335971
 30
0
 11
385.84314678284233
 21
627.8001209335971
 31
0
  0
ARC
  5
13C
330
1F
100
AcDbEntity
  8
0
 62
7
100
AcDbCircle
 10
517.173832237767
 20
844.888234235069
 30
0
 40
4.99999961950946
100
AcDbArc
 50
333.43506295370048
 51
63.435062953700495
  0
LINE
  5
13D
330
1F
100
AcDbEntity
  8
0
 62
7
100
AcDbLine
 10
519.40989113679609
 20
849.36037430389149
 30
0
 11
492.57704970289188
 21
862.77673076095391
 31
0
  0
ARC
  5
13E
330
1F
100
AcDbEntity
  8
0
 62
7
100
AcDbCircle
 10
490.34099029338148
 20
858.30459052197
 30
0
 40
5
100
AcDbArc
 50
63.435058593599436
 51
153.43505859360002
  0
LINE
  5
13F
330
1F
100
AcDbEntity
  8
0
 62
7
100
AcDbLine
 10
485.86885005439746
 20
860.5406499314804
 30
0
 11
400.22282794027251
 21
689.24778527125318
 31
0
  0
ARC
  5
140
330
1F
100
AcDbEntity
  8
0
 62
7
100
AcDbCircle
 10
395.75068770128843
 20
691.48384468076358
 30
0
 40
5.00000000000006
100
AcDbArc
 50
243.43505859360118
 51
333.43505859360027
  0
LINE
  5
141
330
1F
100
AcDbEntity
  8
0
 62
7
100
AcDbLine
 10
393.51462829177814
 20
687.01170444177956
 30
0
 11
136.35443497293841
 21
815.591185248209
 31
0
  0
ARC
  5
142
330
1F
100
AcDbEntity
  8
0
 62
7
100
AcDbCircle
 10
134.118375563428
 20
811.11904500922492
 30
0
 40
5
100
AcDbArc
 50
63.435058593600012
 51
153.43505859360002
  0
LINE
  5
143
330
1F
100
AcDbEntity
  8
0
 62
7
100
AcDbLine
 10
129.64623532444398
 20
813.35510441873532
 30
0
 11
116.22987886738154
 21
786.52226298483117
 31
0
  0
ARC
  5
144
330
1F
100
AcDbEntity
  8
0
 62
7
100
AcDbCircle
 10
120.70201910636557
 20
784.28620357532088
 30
0
 40
4.99999999999989
100
AcDbArc
 50
153.43505859360118
 51
243.43505859359996
  0
LINE
  5
145
330
1F
100
AcDbEntity
  8
0
 62
7
100
AcDbLine
 10
118.46595969685517
 20
779.81406333633686
 30
0
 11
411.403274927567
 21
633.34610725382424
 31
0
  0
ARC
  5
146
330
1F
100
AcDbEntity
  8
0
 62
7
100
AcDbCircle
 10
413.6393343370774
 20
637.81824749280827
 30
0
 40
5
100
AcDbArc
 50
243.43505859359996
 51
333.43505859359857
  0
LINE
  5
147
330
1F
100
AcDbEntity
  8
0
 62
7
100
AcDbLine
 10
418.11147457606137
 20
635.58218808329775
 30
0
 11
521.64597230658944
 21
842.65217533603993
 31
0
  0
CIRCLE
  5
148
330
1F
100
AcDbEntity
  8
0
 62
7
100
AcDbCircle
 10
190.02013069280625
 20
782.05026840186144
 30
0
 40
2.545
  0
CIRCLE
  5
149
330
1F
100
AcDbEntity
  8
0
 62
7
100
AcDbCircle
 10
179.42417037928092
 20
764.21423525012062
 30
0
 40
3.045
  0
CIRCLE
  5
14A
330
1F
100
AcDbEntity
  8
0
 62
7
100
AcDbCircle
 10
213.54654981572807
 20
761.862216564302
 30
0
 40
3.045
  0
CIRCLE
  5
14B
330
1F
100
AcDbEntity
  8
0
 62
7
100
AcDbCircle
 10
434.72795312133667
 20
723.60476990306074
 30
0
 40
5.02
  0
CIRCLE
  5
14C
330
1F
100
AcDbEntity
  8
0
 62
7
100
AcDbCircle
 10
479.44914131171186
 20
813.0475746831047
 30
0
 40
5.02
  0
CIRCLE
  5
14D
330
1F
100
AcDbEntity
  8
0
 62
7
100
AcDbCircle
 10
502.86298724653153
 20
849.807556197843
 30
0
 40
2.545
  0
LINE
  5
14E
330
1F
100
AcDbEntity
  8
0
 62
7
100
AcDbLine
 10
141.34281674167349
 20
779.99348078342291
 30
0
 11
144.92052893286072
 21
778.20463325581466
 31
0
  0
ARC
  5
14F
330
1F
100
AcDbEntity
  8
0
 62
7
100
AcDbCircle
 10
147.60380022427321
 20
783.57120154259542
 30
0
 40
6
100
AcDbArc
 50
243.43505859359962
 51
63.435058593599628
  0
LINE
  5
150
330
1F
100
AcDbEntity
  8
0
 62
7
100
AcDbLine
 10
150.28707151568571
 20
788.93776982937618
 30
0
 11
146.70935932449802
 21
790.72661735698364
 31
0
  0
ARC
  5
151
330
1F
100
AcDbEntity
  8
0
 62
7
100
AcDbCircle
 10
144.02608816367294
 20
785.36004900490946
 30
0
 40
5.99999999999932
100
AcDbArc
 50
63.435059987806817
 51
243.43505719939287
  0
LINE
  5
152
330
1F
100
AcDbEntity
  8
0
 62
7
100
AcDbLine
 10
141.34281674167349
 20
779.99348078342291
 30
0
 11
141.34281674167349
 21
779.99348078342291
 31
0
  0
ARC
  5
153
330
1F
100
AcDbEntity
  8
0
 62
7
100
AcDbCircle
 10
10.011934052469817
 20
665.76449504538573
 30
0
 40
4.99999961950946
100
AcDbArc
 50
153.43506295380107
 51
243.435062953801
  0
LINE
  5
154
330
1F
100
AcDbEntity
  8
0
 62
7
100
AcDbLine
 10
7.7758751534485322
 20
661.2923549765593
 30
0
 11
34.608716587376
 21
647.87599851954371
 31
0
  0
ARC
  5
155
330
1F
100
AcDbEntity
  8
0
 62
7
100
AcDbCircle
 10
36.8447759968786
 20
652.3481387585316
 30
0
 40
5
100
AcDbArc
 50
243.43505859369981
 51
333.43505859370038
  0
LINE
  5
156
330
1F
100
AcDbEntity
  8
0
 62
7
100
AcDbLine
 10
41.316916235866522
 20
650.112079349029
 30
0
 11
126.96293834969258
 21
821.40494400940565
 31
0
  0
ARC
  5
157
330
1F
100
AcDbEntity
  8
0
 62
7
100
AcDbCircle
 10
131.4350785886806
 20
819.168884599903
 30
0
 40
5.00000000000006
100
AcDbArc
 50
63.435058593701392
 51
153.43505859369972
  0
LINE
  5
158
330
1F
100
AcDbEntity
  8
0
 62
7
100
AcDbLine
 10
133.6711379981831
 20
823.641024838891
 30
0
 11
390.83133131724708
 21
695.06154403291021
 31
0
  0
ARC
  5
159
330
1F
100
AcDbEntity
  8
0
 62
7
100
AcDbCircle
 10
393.06739072674969
 20
699.5336842718981
 30
0
 40
5
100
AcDbArc
 50
243.43505859369961
 51
333.43505859370055
  0
LINE
  5
15A
330
1F
100
AcDbEntity
  8
0
 62
7
100
AcDbLine
 10
397.53953096573764
 20
697.29762486239554
 30
0
 11
410.95588742275322
 21
724.130466296323
 31
0
  0
ARC
  5
15B
330
1F
100
AcDbEntity
  8
0
 62
7
100
AcDbCircle
 10
406.48374718376527
 20
726.36652570582555
 30
0
 40
4.99999999999989
100
AcDbArc
 50
333.43505859370055
 51
63.435058593699637
  0
LINE
  5
15C
330
1F
100
AcDbEntity
  8
0
 62
7
100
AcDbLine
 10
408.71980659326795
 20
730.83866594481356
 30
0
 11
115.7824913623006
 21
877.306622026815
 31
0
  0
ARC
  5
15D
330
1F
100
AcDbEntity
  8
0
 62
7
100
AcDbCircle
 10
113.546431952798
 20
872.83448178782714
 30
0
 40
5
100
AcDbArc
 50
63.435058593699793
 51
153.43505859370029
  0
LINE
  5
15E
330
1F
100
AcDbEntity
  8
0
 62
7
100
AcDbLine
 10
109.0742917138101
 20
875.0705411973297
 30
0
 11
5.5397939836434276
 21
668.000553944407
 31
0
  0
CIRCLE
  5
15F
330
1F
100
AcDbEntity
  8
0
 62
7
100
AcDbCircle
 10
337.16563559732077
 20
728.60246087916414
 30
0
 40
2.545
  0
CIRCLE
  5
160
330
1F
100
AcDbEntity
  8
0
 62
7
100
AcDbCircle
 10
347.76159591081495
 20
746.43849403092338
 30
0
 40
3.045
  0
CIRCLE
  5
161
330
1F
100
AcDbEntity
  8
0
 62
7
100
AcDbCircle
 10
313.63921647436376
 20
748.79051271668254
 30
0
 40
3.045
  0
CIRCLE
  5
162
330
1F
100
AcDbEntity
  8
0
 62
7
100
AcDbCircle
 10
92.457813168688332
 20
787.04795937753784
 30
0
 40
5.02
  0
CIRCLE
  5
163
330
1F
100
AcDbEntity
  8
0
 62
7
100
AcDbCircle
 10
47.736624978469294
 20
697.60515459741589
 30
0
 40
5.02
  0
CIRCLE
  5
164
330
1F
100
AcDbEntity
  8
0
 62
7
100
AcDbCircle
 10
24.3227790437137
 20
660.84517308263662
 30
0
 40
2.545
  0
LINE
  5
165
330
1F
100
AcDbEntity
  8
0
 62
7
100
AcDbLine
 10
385.84294954844989
 20
730.65924849768749
 30
0
 11
382.26523735725959
 21
732.4480960252896
 31
0
  0
ARC
  5
166
330
1F
100
AcDbEntity
  8
0
 62
7
100
AcDbCircle
 10
379.58196606585648
 20
727.08152773850406
 30
0
 40
6
100
AcDbArc
 50
63.43505859370012
 51
243.43505859369915
  0
LINE
  5
167
330
1F
100
AcDbEntity
  8
0
 62
7
100
AcDbLine
 10
376.8986947744533
 20
721.71495945171864
 30
0
 11
380.47640696564406
 21
719.92611192411744
 31
0
  0
ARC
  5
168
330
1F
100
AcDbEntity
  8
0
 62
7
100
AcDbCircle
 10
383.15967812645977
 20
725.29268027619628
 30
0
 40
5.99999999999932
100
AcDbArc
 50
243.43505998790681
 51
63.435057199492448
  0
LINE
  5
169
330
1F
100
AcDbEntity
  8
0
 62
7
100
AcDbLine
 10
385.84294954844989
 20
730.65924849768749
 30
0
 11
385.84294954844989
 21
730.65924849768749
 31
0
  0
ARC
  5
16A
330
1F
100
AcDbEntity
  8
0
 62
7
100
AcDbCircle
 10
517.17363500337456
 20
947.74736179915942
 30
0
 40
4.99999961950946
100
AcDbArc
 50
333.43506295370048
 51
63.435062953700495
  0
LINE
  5
16B
330
1F
100
AcDbEntity
  8
0
 62
7
100
AcDbLine
 10
519.40969390240366
 20
952.21950186798188
 30
0
 11
492.57685246849945
 21
965.6358583250443
 31
0
  0
ARC
  5
16C
330
1F
100
AcDbEntity
  8
0
 62
7
100
AcDbCircle
 10
490.34079305898905
 20
961.16371808606038
 30
0
 40
5
100
AcDbArc
 50
63.435058593599436
 51
153.43505859360002
  0
LINE
  5
16D
330
1F
100
AcDbEntity
  8
0
 62
7
100
AcDbLine
 10
485.868652820005
 20
963.39977749557079
 30
0
 11
400.22263070588014
 21
792.10691283534356
 31
0
  0
ARC
  5
16E
330
1F
100
AcDbEntity
  8
0
 62
7
100
AcDbCircle
 10
395.75049046689605
 20
794.342972244854
 30
0
 40
5.00000000000006
100
AcDbArc
 50
243.43505859360118
 51
333.43505859360027
  0
LINE
  5
16F
330
1F
100
AcDbEntity
  8
0
 62
7
100
AcDbLine
 10
393.51443105738576
 20
789.87083200586994
 30
0
 11
136.35423773854598
 21
918.45031281229933
 31
0
  0
ARC
  5
170
330
1F
100
AcDbEntity
  8
0
 62
7
100
AcDbCircle
 10
134.11817832903557
 20
913.97817257331531
 30
0
 40
5
100
AcDbArc
 50
63.435058593600012
 51
153.43505859360002
  0
LINE
  5
171
330
1F
100
AcDbEntity
  8
0
 62
7
100
AcDbLine
 10
129.64603809005155
 20
916.21423198282571
 30
0
 11
116.22968163298913
 21
889.38139054892156
 31
0
  0
ARC
  5
172
330
1F
100
AcDbEntity
  8
0
 62
7
100
AcDbCircle
 10
120.70182187197315
 20
887.14533113941127
 30
0
 40
4.99999999999989
100
AcDbArc
 50
153.43505859360118
 51
243.43505859359996
  0
LINE
  5
173
330
1F
100
AcDbEntity
  8
0
 62
7
100
AcDbLine
 10
118.46576246246275
 20
882.67319090042724
 30
0
 11
411.40307769317462
 21
736.20523481791463
 31
0
  0
ARC
  5
174
330
1F
100
AcDbEntity
  8
0
 62
7
100
AcDbCircle
 10
413.639137102685
 20
740.67737505689865
 30
0
 40
5
100
AcDbArc
 50
243.43505859359996
 51
333.43505859359857
  0
LINE
  5
175
330
1F
100
AcDbEntity
  8
0
 62
7
100
AcDbLine
 10
418.111277341669
 20
738.44131564738814
 30
0
 11
521.645775072197
 21
945.51130290013032
 31
0
  0
CIRCLE
  5
176
330
1F
100
AcDbEntity
  8
0
 62
7
100
AcDbCircle
 10
190.01993345841385
 20
884.90939596595183
 30
0
 40
2.545
  0
CIRCLE
  5
177
330
1F
100
AcDbEntity
  8
0
 62
7
100
AcDbCircle
 10
179.42397314488852
 20
867.073362814211
 30
0
 40
3.045
  0
CIRCLE
  5
178
330
1F
100
AcDbEntity
  8
0
 62
7
100
AcDbCircle
 10
213.54635258133567
 20
864.72134412839239
 30
0
 40
3.045
  0
CIRCLE
  5
179
330
1F
100
AcDbEntity
  8
0
 62
7
100
AcDbCircle
 10
434.72775588694429
 20
826.46389746715113
 30
0
 40
5.02
  0
CIRCLE
  5
17A
330
1F
100
AcDbEntity
  8
0
 62
7
100
AcDbCircle
 10
479.44894407731942
 20
915.90670224719508
 30
0
 40
5.02
  0
CIRCLE
  5
17B
330
1F
100
AcDbEntity
  8
0
 62
7
100
AcDbCircle
 10
502.8627900121391
 20
952.66668376193343
 30
0
 40
2.545
  0
LINE
  5
17C
330
1F
100
AcDbEntity
  8
0
 62
7
100
AcDbLine
 10
141.34261950728109
 20
882.8526083475133
 30
0
 11
144.92033169846832
 21
881.063760819905
 31
0
  0
ARC
  5
17D
330
1F
100
AcDbEntity
  8
0
 62
7
100
AcDbCircle
 10
147.60360298988081
 20
886.4303291066858
 30
0
 40
6
100
AcDbArc
 50
243.43505859359962
 51
63.435058593599628
  0
LINE
  5
17E
330
1F
100
AcDbEntity
  8
0
 62
7
100
AcDbLine
 10
150.28687428129331
 20
891.79689739346657
 30
0
 11
146.70916209010562
 21
893.585744921074
 31
0
  0
ARC
  5
17F
330
1F
100
AcDbEntity
  8
0
 62
7
100
AcDbCircle
 10
144.02589092928054
 20
888.21917656899984
 30
0
 40
5.99999999999932
100
AcDbArc
 50
63.435059987806817
 51
243.43505719939287
  0
LINE
  5
180
330
1F
100
AcDbEntity
  8
0
 62
7
100
AcDbLine
 10
141.34261950728109
 20
882.8526083475133
 30
0
 11
141.34261950728109
 21
882.8526083475133
 31
0
  0
ARC
  5
181
330
1F
100
AcDbEntity
  8
0
 62
7
100
AcDbCircle
 10
10.011736818077386
 20
768.62362260947612
 30
0
 40
4.99999961950946
100
AcDbArc
 50
153.43506295380107
 51
243.435062953801
  0
LINE
  5
182
330
1F
100
AcDbEntity
  8
0
 62
7
100
AcDbLine
 10
7.7756779190561023
 20
764.15148254064968
 30
0
 11
34.608519352983578
 21
750.7351260836341
 31
0
  0
ARC
  5
183
330
1F
100
AcDbEntity
  8
0
 62
7
100
AcDbCircle
 10
36.844578762486172
 20
755.207266322622
 30
0
 40
5
100
AcDbArc
 50
243.43505859369981
 51
333.43505859370038
  0
LINE
  5
184
330
1F
100
AcDbEntity
  8
0
 62
7
100
AcDbLine
 10
41.316719001474091
 20
752.97120691311943
 30
0
 11
126.96274111530016
 21
924.264071573496
 31
0
  0
ARC
  5
185
330
1F
100
AcDbEntity
  8
0
 62
7
100
AcDbCircle
 10
131.43488135428814
 20
922.02801216399337
 30
0
 40
5.00000000000006
100
AcDbArc
 50
63.435058593701392
 51
153.43505859369952
  0
LINE
  5
186
330
1F
100
AcDbEntity
  8
0
 62
7
100
AcDbLine
 10
133.67094076379064
 20
926.50015240298137
 30
0
 11
390.8311340828547
 21
797.92067159700059
 31
0
  0
ARC
  5
187
330
1F
100
AcDbEntity
  8
0
 62
7
100
AcDbCircle
 10
393.06719349235732
 20
802.39281183598848
 30
0
 40
5
100
AcDbArc
 50
243.43505859369961
 51
333.43505859370055
  0
LINE
  5
188
330
1F
100
AcDbEntity
  8
0
 62
7
100
AcDbLine
 10
397.53933373134527
 20
800.15675242648592
 30
0
 11
410.95569018836085
 21
826.98959386041338
 31
0
  0
ARC
  5
189
330
1F
100
AcDbEntity
  8
0
 62
7
100
AcDbCircle
 10
406.4835499493729
 20
829.22565326991594
 30
0
 40
4.99999999999989
100
AcDbArc
 50
333.43505859370055
 51
63.435058593700219
  0
LINE
  5
18A
330
1F
100
AcDbEntity
  8
0
 62
7
100
AcDbLine
 10
408.71960935887552
 20
833.69779350890394
 30
0
 11
115.78229412790817
 21
980.16574959090542
 31
0
  0
ARC
  5
18B
330
1F
100
AcDbEntity
  8
0
 62
7
100
AcDbCircle
 10
113.54623471840557
 20
975.69360935191753
 30
0
 40
5
100
AcDbArc
 50
63.435058593699793
 51
153.43505859370029
  0
LINE
  5
18C
330
1F
100
AcDbEntity
  8
0
 62
7
100
AcDbLine
 10
109.07409447941767
 20
977.92966876142009
 30
0
 11
5.5395967492509968
 21
770.85968150849737
 31
0
  0
CIRCLE
  5
18D
330
1F
100
AcDbEntity
  8
0
 62
7
100
AcDbCircle
 10
337.16543836292834
 20
831.46158844325453
 30
0
 40
2.545
  0
CIRCLE
  5
18E
330
1F
100
AcDbEntity
  8
0
 62
7
100
AcDbCircle
 10
347.76139867642252
 20
849.29762159501377
 30
0
 40
3.045
  0
CIRCLE
  5
18F
330
1F
100
AcDbEntity
  8
0
 62
7
100
AcDbCircle
 10
313.63901923997133
 20
851.64964028077293
 30
0
 40
3.045
  0
CIRCLE
  5
190
330
1F
100
AcDbEntity
  8
0
 62
7
100
AcDbCircle
 10
92.4576159342959
 20
889.90708694162822
 30
0
 40
5.02
  0
CIRCLE
  5
191
330
1F
100
AcDbEntity
  8
0
 62
7
100
AcDbCircle
 10
47.736427744076863
 20
800.46428216150628
 30
0
 40
5.02
  0
CIRCLE
  5
192
330
1F
100
AcDbEntity
  8
0
 62
7
100
AcDbCircle
 10
24.322581809321271
 20
763.704300646727
 30
0
 40
2.545
  0
LINE
  5
193
330
1F
100
AcDbEntity
  8
0
 62
7
100
AcDbLine
 10
385.84275231405746
 20
833.51837606177787
 30
0
 11
382.26504012286716
 21
835.30722358938
 31
0
  0
ARC
  5
194
330
1F
100
AcDbEntity
  8
0
 62
7
100
AcDbCircle
 10
379.58176883146405
 20
829.94065530259445
 30
0
 40
6
100
AcDbArc
 50
63.43505859370012
 51
243.43505859369961
  0
LINE
  5
195
330
1F
100
AcDbEntity
  8
0
 62
7
100
AcDbLine
 10
376.89849754006093
 20
824.574087015809
 30
0
 11
380.47620973125169
 21
822.78523948820782
 31
0
  0
ARC
  5
196
330
1F
100
AcDbEntity
  8
0
 62
7
100
AcDbCircle
 10
383.15948089206739
 20
828.15180784028666
 30
0
 40
5.99999999999932
100
AcDbArc
 50
243.43505998790681
 51
63.435057199492945
  0
LINE
  5
197
330
1F
100
AcDbEntity
  8
0
 62
7
100
AcDbLine
 10
385.84275231405746
 20
833.51837606177787
 30
0
 11
385.84275231405746
 21
833.51837606177787
 31
0
  0
ARC
  5
198
330
1F
100
AcDbEntity
  8
0
 62
7
100
AcDbCircle
 10
517.17343776898213
 20
1050.6064893632497
 30
0
 40
4.99999961950946
100
AcDbArc
 50
333.43506295370048
 51
63.43506295370166
  0
LINE
  5
199
330
1F
100
AcDbEntity
  8
0
 62
7
100
AcDbLine
 10
519.40949666801123
 20
1055.0786294320724
 30
0
 11
492.57665523410708
 21
1068.4949858891348
 31
0
  0
ARC
  5
19A
330
1F
100
AcDbEntity
  8
0
 62
7
100
AcDbCircle
 10
490.34059582459668
 20
1064.0228456501507
 30
0
 40
5
100
AcDbArc
 50
63.435058593600594
 51
153.43505859359885
  0
LINE
  5
19B
330
1F
100
AcDbEntity
  8
0
 62
7
100
AcDbLine
 10
485.86845558561265
 20
1066.2589050596612
 30
0
 11
400.2224334714877
 21
894.96604039943384
 31
0
  0
ARC
  5
19C
330
1F
100
AcDbEntity
  8
0
 62
7
100
AcDbCircle
 10
395.75029323250362
 20
897.20209980894424
 30
0
 40
5.00000000000006
100
AcDbArc
 50
243.43505859360118
 51
333.43505859360027
  0
LINE
  5
19D
330
1F
100
AcDbEntity
  8
0
 62
7
100
AcDbLine
 10
393.51423382299333
 20
892.72995956996022
 30
0
 11
136.35404050415357
 21
1021.3094403763897
 31
0
  0
ARC
  5
19E
330
1F
100
AcDbEntity
  8
0
 62
7
100
AcDbCircle
 10
134.11798109464317
 20
1016.8373001374057
 30
0
 40
5
100
AcDbArc
 50
63.435058593600012
 51
153.43505859360002
  0
LINE
  5
19F
330
1F
100
AcDbEntity
  8
0
 62
7
100
AcDbLine
 10
129.64584085565915
 20
1019.0733595469161
 30
0
 11
116.22948439859671
 21
992.24051811301206
 31
0
  0
ARC
  5
1A0
330
1F
100
AcDbEntity
  8
0
 62
7
100
AcDbCircle
 10
120.70162463758074
 20
990.00445870350154
 30
0
 40
4.99999999999989
100
AcDbArc
 50
153.43505859359885
 51
243.43505859359996
  0
LINE
  5
1A1
330
1F
100
AcDbEntity
  8
0
 62
7
100
AcDbLine
 10
118.46556522807033
 20
985.53231846451752
 30
0
 11
411.40288045878219
 21
839.0643623820049
 31
0
  0
ARC
  5
1A2
330
1F
100
AcDbEntity
  8
0
 62
7
100
AcDbCircle
 10
413.6389398682926
 20
843.53650262098893
 30
0
 40
5
100
AcDbArc
 50
243.43505859359996
 51
333.43505859359971
  0
LINE
  5
1A3
330
1F
100
AcDbEntity
  8
0
 62
7
100
AcDbLine
 10
418.11108010727656
 20
841.30044321147852
 30
0
 11
521.64557783780458
 21
1048.3704304642206
 31
0
  0
CIRCLE
  5
1A4
330
1F
100
AcDbEntity
  8
0
 62
7
100
AcDbCircle
 10
190.01973622402144
 20
987.7685235300421
 30
0
 40
2.545
  0
CIRCLE
  5
1A5
330
1F
100
AcDbEntity
  8
0
 62
7
100
AcDbCircle
 10
179.42377591049612
 20
969.93249037830128
 30
0
 40
3.045
  0
CIRCLE
  5
1A6
330
1F
100
AcDbEntity
  8
0
 62
7
100
AcDbCircle
 10
213.54615534694327
 20
967.58047169248266
 30
0
 40
3.045
  0
CIRCLE
  5
1A7
330
1F
100
AcDbEntity
  8
0
 62
7
100
AcDbCircle
 10
434.72755865255186
 20
929.32302503124151
 30
0
 40
5.02
  0
CIRCLE
  5
1A8
330
1F
100
AcDbEntity
  8
0
 62
7
100
AcDbCircle
 10
479.448746842927
 20
1018.7658298112855
 30
0
 40
5.02
  0
CIRCLE
  5
1A9
330
1F
100
AcDbEntity
  8
0
 62
7
100
AcDbCircle
 10
502.86259277774673
 20
1055.5258113260238
 30
0
 40
2.545
  0
LINE
  5
1AA
330
1F
100
AcDbEntity
  8
0
 62
7
100
AcDbLine
 10
141.34242227288868
 20
985.71173591160368
 30
0
 11
144.92013446407591
 21
983.92288838399531
 31
0
  0
ARC
  5
1AB
330
1F
100
AcDbEntity
  8
0
 62
7
100
AcDbCircle
 10
147.60340575548841
 20
989.28945667077619
 30
0
 40
6
100
AcDbArc
 50
243.43505859360008
 51
63.435058593600111
  0
LINE
  5
1AC
330
1F
100
AcDbEntity
  8
0
 62
7
100
AcDbLine
 10
150.28667704690091
 20
994.65602495755707
 30
0
 11
146.70896485571322
 21
996.44487248516452
 31
0
  0
ARC
  5
1AD
330
1F
100
AcDbEntity
  8
0
 62
7
100
AcDbCircle
 10
144.02569369488813
 20
991.07830413309034
 30
0
 40
5.99999999999932
100
AcDbArc
 50
63.435059987806817
 51
243.43505719939338
  0
LINE
  5
1AE
330
1F
100
AcDbEntity
  8
0
 62
7
100
AcDbLine
 10
141.34242227288868
 20
985.71173591160368
 30
0
 11
141.34242227288868
 21
985.71173591160368
 31
0
  0
ARC
  5
1AF
330
1F
100
AcDbEntity
  8
0
 62
7
100
AcDbCircle
 10
10.011539583684927
 20
871.4827501735665
 30
0
 40
4.99999961950946
100
AcDbArc
 50
153.43506295380107
 51
243.435062953801
  0
LINE
  5
1B0
330
1F
100
AcDbEntity
  8
0
 62
7
100
AcDbLine
 10
7.7754806846636422
 20
867.01061010474007
 30
0
 11
34.608322118591111
 21
853.59425364772449
 31
0
  0
ARC
  5
1B1
330
1F
100
AcDbEntity
  8
0
 62
7
100
AcDbCircle
 10
36.844381528093706
 20
858.06639388671238
 30
0
 40
5
100
AcDbArc
 50
243.43505859369981
 51
333.43505859370038
  0
LINE
  5
1B2
330
1F
100
AcDbEntity
  8
0
 62
7
100
AcDbLine
 10
41.316521767081625
 20
855.83033447720982
 30
0
 11
126.96254388090769
 21
1027.1231991375864
 31
0
  0
ARC
  5
1B3
330
1F
100
AcDbEntity
  8
0
 62
7
100
AcDbCircle
 10
131.43468411989571
 20
1024.8871397280839
 30
0
 40
5.00000000000006
100
AcDbArc
 50
63.435058593701392
 51
153.43505859370089
  0
LINE
  5
1B4
330
1F
100
AcDbEntity
  8
0
 62
7
100
AcDbLine
 10
133.67074352939821
 20
1029.3592799670719
 30
0
 11
390.83093684846222
 21
900.779799161091
 31
0
  0
ARC
  5
1B5
330
1F
100
AcDbEntity
  8
0
 62
7
100
AcDbCircle
 10
393.06699625796483
 20
905.25193940007887
 30
0
 40
5
100
AcDbArc
 50
243.43505859369961
 51
333.43505859370055
  0
LINE
  5
1B6
330
1F
100
AcDbEntity
  8
0
 62
7
100
AcDbLine
 10
397.53913649695278
 20
903.01587999057631
 30
0
 11
410.95549295396836
 21
929.84872142450376
 31
0
  0
ARC
  5
1B7
330
1F
100
AcDbEntity
  8
0
 62
7
100
AcDbCircle
 10
406.48335271498041
 20
932.08478083400632
 30
0
 40
4.99999999999989
100
AcDbArc
 50
333.43505859370055
 51
63.435058593700219
  0
LINE
  5
1B8
330
1F
100
AcDbEntity
  8
0
 62
7
100
AcDbLine
 10
408.71941212448303
 20
936.55692107299433
 30
0
 11
115.78209689351571
 21
1083.0248771549959
 31
0
  0
ARC
  5
1B9
330
1F
100
AcDbEntity
  8
0
 62
7
100
AcDbCircle
 10
113.54603748401311
 20
1078.5527369160079
 30
0
 40
5
100
AcDbArc
 50
63.435058593700361
 51
153.43505859370029
  0
LINE
  5
1BA
330
1F
100
AcDbEntity
  8
0
 62
7
100
AcDbLine
 10
109.07389724502521
 20
1080.7887963255105
 30
0
 11
5.5393995148585367
 21
873.71880907258776
 31
0
  0
CIRCLE
  5
1BB
330
1F
100
AcDbEntity
  8
0
 62
7
100
AcDbCircle
 10
337.16524112853585
 20
934.32071600734491
 30
0
 40
2.545
  0
CIRCLE
  5
1BC
330
1F
100
AcDbEntity
  8
0
 62
7
100
AcDbCircle
 10
347.76120144203
 20
952.15674915910415
 30
0
 40
3.045
  0
CIRCLE
  5
1BD
330
1F
100
AcDbEntity
  8
0
 62
7
100
AcDbCircle
 10
313.63882200557885
 20
954.50876784486331
 30
0
 40
3.045
  0
CIRCLE
  5
1BE
330
1F
100
AcDbEntity
  8
0
 62
7
100
AcDbCircle
 10
92.457418699903428
 20
992.76621450571861
 30
0
 40
5.02
  0
CIRCLE
  5
1BF
330
1F
100
AcDbEntity
  8
0
 62
7
100
AcDbCircle
 10
47.736230509684404
 20
903.32340972559666
 30
0
 40
5.02
  0
CIRCLE
  5
1C0
330
1F
100
AcDbEntity
  8
0
 62
7
100
AcDbCircle
 10
24.322384574928812
 20
866.56342821081739
 30
0
 40
2.545
  0
LINE
  5
1C1
330
1F
100
AcDbEntity
  8
0
 62
7
100
AcDbLine
 10
385.842555079665
 20
936.37750362586826
 30
0
 11
382.26484288847467
 21
938.16635115347037
 31
0
  0
ARC
  5
1C2
330
1F
100
AcDbEntity
  8
0
 62
7
100
AcDbCircle
 10
379.58157159707156
 20
932.79978286668484
 30
0
 40
6
100
AcDbArc
 50
63.43505859370012
 51
243.43505859369961
  0
LINE
  5
1C3
330
1F
100
AcDbEntity
  8
0
 62
7
100
AcDbLine
 10
376.89830030566844
 20
927.43321457989941
 30
0
 11
380.4760124968592
 21
925.64436705229821
 31
0
  0
ARC
  5
1C4
330
1F
100
AcDbEntity
  8
0
 62
7
100
AcDbCircle
 10
383.15928365767491
 20
931.010935404377
 30
0
 40
5.99999999999932
100
AcDbArc
 50
243.43505998790681
 51
63.435057199492945
  0
LINE
  5
1C5
330
1F
100
AcDbEntity
  8
0
 62
7
100
AcDbLine
 10
385.842555079665
 20
936.37750362586826
 30
0
 11
385.842555079665
 21
936.37750362586826
 31
0
  0
ARC
  5
1C6
330
1F
100
AcDbEntity
  8
0
 62
7
100
AcDbCircle
 10
517.1732405345897
 20
1153.4656169273403
 30
0
 40
4.99999961950946
100
AcDbArc
 50
333.43506295370048
 51
63.435062953699322
  0
LINE
  5
1C7
330
1F
100
AcDbEntity
  8
0
 62
7
100
AcDbLine
 10
519.4092994336188
 20
1157.9377569961625
 30
0
 11
492.57645799971465
 21
1171.3541134532252
 31
0
  0
ARC
  5
1C8
330
1F
100
AcDbEntity
  8
0
 62
7
100
AcDbCircle
 10
490.34039859020425
 20
1166.881973214241
 30
0
 40
5
100
AcDbArc
 50
63.435058593600594
 51
153.43505859359885
  0
LINE
  5
1C9
330
1F
100
AcDbEntity
  8
0
 62
7
100
AcDbLine
 10
485.86825835122022
 20
1169.1180326237516
 30
0
 11
400.22223623709527
 21
997.82516796352434
 31
0
  0
ARC
  5
1CA
330
1F
100
AcDbEntity
  8
0
 62
7
100
AcDbCircle
 10
395.75009599811119
 20
1000.0612273730349
 30
0
 40
5.00000000000006
100
AcDbArc
 50
243.43505859360175
 51
333.43505859359914
  0
LINE
  5
1CB
330
1F
100
AcDbEntity
  8
0
 62
7
100
AcDbLine
 10
393.5140365886009
 20
995.58908713405071
 30
0
 11
136.35384326976117
 21
1124.16856794048
 31
0
  0
ARC
  5
1CC
330
1F
100
AcDbEntity
  8
0
 62
7
100
AcDbCircle
 10
134.11778386025077
 20
1119.6964277014961
 30
0
 40
5
100
AcDbArc
 50
63.435058593599436
 51
153.43505859359885
  0
LINE
  5
1CD
330
1F
100
AcDbEntity
  8
0
 62
7
100
AcDbLine
 10
129.64564362126674
 20
1121.9324871110066
 30
0
 11
116.22928716420431
 21
1095.0996456771024
 31
0
  0
ARC
  5
1CE
330
1F
100
AcDbEntity
  8
0
 62
7
100
AcDbCircle
 10
120.70142740318833
 20
1092.8635862675919
 30
0
 40
4.99999999999989
100
AcDbArc
 50
153.43505859359885
 51
243.43505859359942
  0
LINE
  5
1CF
330
1F
100
AcDbEntity
  8
0
 62
7
100
AcDbLine
 10
118.46536799367793
 20
1088.391446028608
 30
0
 11
411.40268322438976
 21
941.92348994609529
 31
0
  0
ARC
  5
1D0
330
1F
100
AcDbEntity
  8
0
 62
7
100
AcDbCircle
 10
413.63874263390016
 20
946.39563018507931
 30
0
 40
5
100
AcDbArc
 50
243.43505859359996
 51
333.43505859359971
  0
LINE
  5
1D1
330
1F
100
AcDbEntity
  8
0
 62
7
100
AcDbLine
 10
418.11088287288413
 20
944.15957077556891
 30
0
 11
521.64538060341215
 21
1151.2295580283112
 31
0
  0
CIRCLE
  5
1D2
330
1F
100
AcDbEntity
  8
0
 62
7
100
AcDbCircle
 10
190.019538989629
 20
1090.6276510941325
 30
0
 40
2.545
  0
CIRCLE
  5
1D3
330
1F
100
AcDbEntity
  8
0
 62
7
100
AcDbCircle
 10
179.42357867610369
 20
1072.7916179423917
 30
0
 40
3.045
  0
CIRCLE
  5
1D4
330
1F
100
AcDbEntity
  8
0
 62
7
100
AcDbCircle
 10
213.54595811255084
 20
1070.439599256573
 30
0
 40
3.045
  0
CIRCLE
  5
1D5
330
1F
100
AcDbEntity
  8
0
 62
7
100
AcDbCircle
 10
434.72736141815943
 20
1032.1821525953319
 30
0
 40
5.02
  0
CIRCLE
  5
1D6
330
1F
100
AcDbEntity
  8
0
 62
7
100
AcDbCircle
 10
479.44854960853462
 20
1121.6249573753757
 30
0
 40
5.02
  0
CIRCLE
  5
1D7
330
1F
100
AcDbEntity
  8
0
 62
7
100
AcDbCircle
 10
502.8623955433543
 20
1158.3849388901142
 30
0
 40
2.545
  0
LINE
  5
1D8
330
1F
100
AcDbEntity
  8
0
 62
7
100
AcDbLine
 10
141.34222503849625
 20
1088.5708634756941
 30
0
 11
144.91993722968348
 21
1086.7820159480857
 31
0
  0
ARC
  5
1D9
330
1F
100
AcDbEntity
  8
0
 62
7
100
AcDbCircle
 10
147.60320852109598
 20
1092.1485842348666
 30
0
 40
6
100
AcDbArc
 50
243.43505859360008
 51
63.435058593600111
  0
LINE
  5
1DA
330
1F
100
AcDbEntity
  8
0
 62
7
100
AcDbLine
 10
150.28647981250847
 20
1097.5151525216475
 30
0
 11
146.70876762132079
 21
1099.3040000492549
 31
0
  0
ARC
  5
1DB
330
1F
100
AcDbEntity
  8
0
 62
7
100
AcDbCircle
 10
144.0254964604957
 20
1093.9374316971807
 30
0
 40
5.99999999999932
100
AcDbArc
 50
63.435059987806817
 51
243.43505719939338
  0
LINE
  5
1DC
330
1F
100
AcDbEntity
  8
0
 62
7
100
AcDbLine
 10
141.34222503849625
 20
1088.5708634756941
 30
0
 11
141.34222503849625
 21
1088.5708634756941
 31
0
  0
ARC
  5
1DD
330
1F
100
AcDbEntity
  8
0
 62
7
100
AcDbCircle
 10
10.011342349292494
 20
974.34187773765677
 30
0
 40
4.99999961950946
100
AcDbArc
 50
153.43506295380107
 51
243.435062953801
  0
LINE
  5
1DE
330
1F
100
AcDbEntity
  8
0
 62
7
100
AcDbLine
 10
7.7752834502712087
 20
969.86973766883034
 30
0
 11
34.608124884198681
 21
956.45338121181476
 31
0
  0
ARC
  5
1DF
330
1F
100
AcDbEntity
  8
0
 62
7
100
AcDbCircle
 10
36.844184293701275
 20
960.92552145080265
 30
0
 40
5
100
AcDbArc
 50
243.43505859369981
 51
333.43505859370038
  0
LINE
  5
1E0
330
1F
100
AcDbEntity
  8
0
 62
7
100
AcDbLine
 10
41.316324532689194
 20
958.68946204130009
 30
0
 11
126.96234664651526
 21
1129.9823267016768
 31
0
  0
ARC
  5
1E1
330
1F
100
AcDbEntity
  8
0
 62
7
100
AcDbCircle
 10
131.43448688550328
 20
1127.746267292174
 30
0
 40
5.00000000000006
100
AcDbArc
 50
63.435058593701392
 51
153.43505859369856
  0
LINE
  5
1E2
330
1F
100
AcDbEntity
  8
0
 62
7
100
AcDbLine
 10
133.67054629500578
 20
1132.218407531162
 30
0
 11
390.83073961406978
 21
1003.6389267251814
 31
0
  0
ARC
  5
1E3
330
1F
100
AcDbEntity
  8
0
 62
7
100
AcDbCircle
 10
393.0667990235724
 20
1008.1110669641693
 30
0
 40
5
100
AcDbArc
 50
243.43505859369961
 51
333.43505859370055
  0
LINE
  5
1E4
330
1F
100
AcDbEntity
  8
0
 62
7
100
AcDbLine
 10
397.53893926256035
 20
1005.8750075546667
 30
0
 11
410.95529571957593
 21
1032.7078489885942
 31
0
  0
ARC
  5
1E5
330
1F
100
AcDbEntity
  8
0
 62
7
100
AcDbCircle
 10
406.483155480588
 20
1034.9439083980967
 30
0
 40
4.99999999999989
100
AcDbArc
 50
333.43505859370055
 51
63.435058593699637
  0
LINE
  5
1E6
330
1F
100
AcDbEntity
  8
0
 62
7
100
AcDbLine
 10
408.71921489009065
 20
1039.4160486370847
 30
0
 11
115.78189965912328
 21
1185.8840047190861
 31
0
  0
ARC
  5
1E7
330
1F
100
AcDbEntity
  8
0
 62
7
100
AcDbCircle
 10
113.54584024962068
 20
1181.4118644800983
 30
0
 40
5
100
AcDbArc
 50
63.4350585936992
 51
153.43505859370029
  0
LINE
  5
1E8
330
1F
100
AcDbEntity
  8
0
 62
7
100
AcDbLine
 10
109.07370001063278
 20
1183.6479238896009
 30
0
 11
5.5392022804661041
 21
976.577936636678
 31
0
  0
CIRCLE
  5
1E9
330
1F
100
AcDbEntity
  8
0
 62
7
100
AcDbCircle
 10
337.16504389414348
 20
1037.1798435714354
 30
0
 40
2.545
  0
CIRCLE
  5
1EA
330
1F
100
AcDbEntity
  8
0
 62
7
100
AcDbCircle
 10
347.76100420763765
 20
1055.0158767231947
 30
0
 40
3.045
  0
CIRCLE
  5
1EB
330
1F
100
AcDbEntity
  8
0
 62
7
100
AcDbCircle
 10
313.63862477118647
 20
1057.3678954089537
 30
0
 40
3.045
  0
CIRCLE
  5
1EC
330
1F
100
AcDbEntity
  8
0
 62
7
100
AcDbCircle
 10
92.457221465511012
 20
1095.625342069809
 30
0
 40
5.02
  0
CIRCLE
  5
1ED
330
1F
100
AcDbEntity
  8
0
 62
7
100
AcDbCircle
 10
47.736033275291966
 20
1006.1825372896869
 30
0
 40
5.02
  0
CIRCLE
  5
1EE
330
1F
100
AcDbEntity
  8
0
 62
7
100
AcDbCircle
 10
24.322187340536381
 20
969.42255577490766
 30
0
 40
2.545
  0
LINE
  5
1EF
330
1F
100
AcDbEntity
  8
0
 62
7
100
AcDbLine
 10
385.8423578452726
 20
1039.2366311899586
 30
0
 11
382.2646456540823
 21
1041.0254787175609
 31
0
  0
ARC
  5
1F0
330
1F
100
AcDbEntity
  8
0
 62
7
100
AcDbCircle
 10
379.58137436267913
 20
1035.6589104307752
 30
0
 40
6
100
AcDbArc
 50
63.43505859370012
 51
243.43505859369961
  0
LINE
  5
1F1
330
1F
100
AcDbEntity
  8
0
 62
7
100
AcDbLine
 10
376.898103071276
 20
1030.2923421439898
 30
0
 11
380.47581526246677
 21
1028.5034946163887
 31
0
  0
ARC
  5
1F2
330
1F
100
AcDbEntity
  8
0
 62
7
100
AcDbCircle
 10
383.15908642328247
 20
1033.8700629684674
 30
0
 40
5.99999999999932
100
AcDbArc
 50
243.43505998790633
 51
63.435057199492448
  0
LINE
  5
1F3
330
1F
100
AcDbEntity
  8
0
 62
7
100
AcDbLine
 10
385.8423578452726
 20
1039.2366311899586
 30
0
 11
385.8423578452726
 21
1039.2366311899586
 31
0
  0
ARC
  5
1F4
330
1F
100
AcDbEntity
  8
0
 62
7
100
AcDbCircle
 10
517.17304330019726
 20
1256.3247444914305
 30
0
 40
4.99999961950946
100
AcDbArc
 50
333.43506295370048
 51
63.435062953700495
  0
LINE
  5
1F5
330
1F
100
AcDbEntity
  8
0
 62
7
100
AcDbLine
 10
519.40910219922637
 20
1260.7968845602529
 30
0
 11
492.5762607653221
 21
1274.2132410173153
 31
0
  0
ARC
  5
1F6
330
1F
100
AcDbEntity
  8
0
 62
7
100
AcDbCircle
 10
490.3402013558117
 20
1269.7411007783314
 30
0
 40
5
100
AcDbArc
 50
63.435058593599436
 51
153.43505859359885
  0
LINE
  5
1F7
330
1F
100
AcDbEntity
  8
0
 62
7
100
AcDbLine
 10
485.86806111682768
 20
1271.9771601878419
 30
0
 11
400.22203900270279
 21
1100.6842955276147
 31
0
  0
ARC
  5
1F8
330
1F
100
AcDbEntity
  8
0
 62
7
100
AcDbCircle
 10
395.7498987637187
 20
1102.920354937125
 30
0
 40
5.00000000000006
100
AcDbArc
 50
243.43505859360059
 51
333.43505859360147
  0
LINE
  5
1F9
330
1F
100
AcDbEntity
  8
0
 62
7
100
AcDbLine
 10
393.51383935420841
 20
1098.4482146981411
 30
0
 11
136.35364603536863
 21
1227.0276955045704
 31
0
  0
ARC
  5
1FA
330
1F
100
AcDbEntity
  8
0
 62
7
100
AcDbCircle
 10
134.11758662585822
 20
1222.5555552655865
 30
0
 40
5
100
AcDbArc
 50
63.435058593599436
 51
153.43505859360118
  0
LINE
  5
1FB
330
1F
100
AcDbEntity
  8
0
 62
7
100
AcDbLine
 10
129.6454463868742
 20
1224.7916146750968
 30
0
 11
116.22908992981178
 21
1197.9587732411928
 31
0
  0
ARC
  5
1FC
330
1F
100
AcDbEntity
  8
0
 62
7
100
AcDbCircle
 10
120.7012301687958
 20
1195.7227138316823
 30
0
 40
4.99999999999989
100
AcDbArc
 50
153.43505859359885
 51
243.43505859359942
  0
LINE
  5
1FD
330
1F
100
AcDbEntity
  8
0
 62
7
100
AcDbLine
 10
118.4651707592854
 20
1191.2505735926984
 30
0
 11
411.40248598999727
 21
1044.7826175101859
 31
0
  0
ARC
  5
1FE
330
1F
100
AcDbEntity
  8
0
 62
7
100
AcDbCircle
 10
413.63854539950768
 20
1049.2547577491698
 30
0
 40
5
100
AcDbArc
 50
243.43505859359942
 51
333.43505859359857
  0
LINE
  5
1FF
330
1F
100
AcDbEntity
  8
0
 62
7
100
AcDbLine
 10
418.11068563849165
 20
1047.0186983396593
 30
0
 11
521.64518336901972
 21
1254.0886855924014
 31
0
  0
CIRCLE
  5
200
330
1F
100
AcDbEntity
  8
0
 62
7
100
AcDbCircle
 10
190.0193417552365
 20
1193.4867786582229
 30
0
 40
2.545
  0
CIRCLE
  5
201
330
1F
100
AcDbEntity
  8
0
 62
7
100
AcDbCircle
 10
179.42338144171117
 20
1175.6507455064821
 30
0
 40
3.045
  0
CIRCLE
  5
202
330
1F
100
AcDbEntity
  8
0
 62
7
100
AcDbCircle
 10
213.54576087815832
 20
1173.2987268206634
 30
0
 40
3.045
  0
CIRCLE
  5
203
330
1F
100
AcDbEntity
  8
0
 62
7
100
AcDbCircle
 10
434.72716418376694
 20
1135.0412801594223
 30
0
 40
5.02
  0
CIRCLE
  5
204
330
1F
100
AcDbEntity
  8
0
 62
7
100
AcDbCircle
 10
479.44835237414208
 20
1224.4840849394661
 30
0
 40
5.02
  0
CIRCLE
  5
205
330
1F
100
AcDbEntity
  8
0
 62
7
100
AcDbCircle
 10
502.86219830896175
 20
1261.2440664542046
 30
0
 40
2.545
  0
LINE
  5
206
330
1F
100
AcDbEntity
  8
0
 62
7
100
AcDbLine
 10
141.34202780410374
 20
1191.4299910397845
 30
0
 11
144.91973999529097
 21
1189.6411435121761
 31
0
  0
ARC
  5
207
330
1F
100
AcDbEntity
  8
0
 62
7
100
AcDbCircle
 10
147.60301128670346
 20
1195.007711798957
 30
0
 40
6
100
AcDbArc
 50
243.43505859360008
 51
63.435058593599145
  0
LINE
  5
208
330
1F
100
AcDbEntity
  8
0
 62
7
100
AcDbLine
 10
150.28628257811596
 20
1200.3742800857376
 30
0
 11
146.70857038692827
 21
1202.1631276133453
 31
0
  0
ARC
  5
209
330
1F
100
AcDbEntity
  8
0
 62
7
100
AcDbCircle
 10
144.02529922610319
 20
1196.7965592612709
 30
0
 40
5.99999999999932
100
AcDbArc
 50
63.435059987807783
 51
243.43505719939242
  0
LINE
  5
20A
330
1F
100
AcDbEntity
  8
0
 62
7
100
AcDbLine
 10
141.34202780410374
 20
1191.4299910397845
 30
0
 11
141.34202780410374
 21
1191.4299910397845
 31
0
  0
ARC
  5
20B
330
1F
100
AcDbEntity
  8
0
 62
7
100
AcDbCircle
 10
10.011145114900023
 20
1077.201005301747
 30
0
 40
4.99999961950946
100
AcDbArc
 50
153.4350629537999
 51
243.43506295380044
  0
LINE
  5
20C
330
1F
100
AcDbEntity
  8
0
 62
7
100
AcDbLine
 10
7.7750862158787388
 20
1072.7288652329207
 30
0
 11
34.607927649806214
 21
1059.3125087759051
 31
0
  0
ARC
  5
20D
330
1F
100
AcDbEntity
  8
0
 62
7
100
AcDbCircle
 10
36.843987059308809
 20
1063.7846490148931
 30
0
 40
5
100
AcDbArc
 50
243.43505859370043
 51
333.43505859369805
  0
LINE
  5
20E
330
1F
100
AcDbEntity
  8
0
 62
7
100
AcDbLine
 10
41.316127298296728
 20
1061.5485896053904
 30
0
 11
126.9621494121228
 21
1232.841454265767
 31
0
  0
ARC
  5
20F
330
1F
100
AcDbEntity
  8
0
 62
7
100
AcDbCircle
 10
131.43428965111079
 20
1230.6053948562644
 30
0
 40
5.00000000000006
100
AcDbArc
 50
63.435058593701392
 51
153.43505859370075
  0
LINE
  5
210
330
1F
100
AcDbEntity
  8
0
 62
7
100
AcDbLine
 10
133.67034906061329
 20
1235.0775350952524
 30
0
 11
390.83054237967735
 21
1106.4980542892717
 31
0
  0
ARC
  5
211
330
1F
100
AcDbEntity
  8
0
 62
7
100
AcDbCircle
 10
393.06660178917997
 20
1110.9701945282595
 30
0
 40
5
100
AcDbArc
 50
243.43505859369904
 51
333.43505859370055
  0
LINE
  5
212
330
1F
100
AcDbEntity
  8
0
 62
7
100
AcDbLine
 10
397.53874202816792
 20
1108.734135118757
 30
0
 11
410.9550984851835
 21
1135.5669765526845
 31
0
  0
ARC
  5
213
330
1F
100
AcDbEntity
  8
0
 62
7
100
AcDbCircle
 10
406.48295824619555
 20
1137.8030359621871
 30
0
 40
4.99999999999989
100
AcDbArc
 50
333.43505859370055
 51
63.435058593699054
  0
LINE
  5
214
330
1F
100
AcDbEntity
  8
0
 62
7
100
AcDbLine
 10
408.71901765569817
 20
1142.2751762011749
 30
0
 11
115.78170242473081
 21
1288.7431322831765
 31
0
  0
ARC
  5
215
330
1F
100
AcDbEntity
  8
0
 62
7
100
AcDbCircle
 10
113.54564301522821
 20
1284.2709920441885
 30
0
 40
5
100
AcDbArc
 50
63.435058593700361
 51
153.43505859370029
  0
LINE
  5
216
330
1F
100
AcDbEntity
  8
0
 62
7
100
AcDbLine
 10
109.0735027762403
 20
1286.507051453691
 30
0
 11
5.5390050460736342
 21
1079.4370642007684
 31
0
  0
CIRCLE
  5
217
330
1F
100
AcDbEntity
  8
0
 62
7
100
AcDbCircle
 10
337.164846659751
 20
1140.0389711355256
 30
0
 40
2.545
  0
CIRCLE
  5
218
330
1F
100
AcDbEntity
  8
0
 62
7
100
AcDbCircle
 10
347.76080697324517
 20
1157.8750042872848
 30
0
 40
3.045
  0
CIRCLE
  5
219
330
1F
100
AcDbEntity
  8
0
 62
7
100
AcDbCircle
 10
313.638427536794
 20
1160.2270229730439
 30
0
 40
3.045
  0
CIRCLE
  5
21A
330
1F
100
AcDbEntity
  8
0
 62
7
100
AcDbCircle
 10
92.457024231118538
 20
1198.4844696338992
 30
0
 40
5.02
  0
CIRCLE
  5
21B
330
1F
100
AcDbEntity
  8
0
 62
7
100
AcDbCircle
 10
47.7358360408995
 20
1109.0416648537773
 30
0
 40
5.02
  0
CIRCLE
  5
21C
330
1F
100
AcDbEntity
  8
0
 62
7
100
AcDbCircle
 10
24.321990106143911
 20
1072.2816833389982
 30
0
 40
2.545
  0
LINE
  5
21D
330
1F
100
AcDbEntity
  8
0
 62
7
100
AcDbLine
 10
385.84216061088011
 20
1142.095758754049
 30
0
 11
382.26444841968981
 21
1143.884606281651
 31
0
  0
ARC
  5
21E
330
1F
100
AcDbEntity
  8
0
 62
7
100
AcDbCircle
 10
379.5811771282867
 20
1138.5180379948656
 30
0
 40
6
100
AcDbArc
 50
63.435058593699637
 51
243.43505859369961
  0
LINE
  5
21F
330
1F
100
AcDbEntity
  8
0
 62
7
100
AcDbLine
 10
376.89790583688358
 20
1133.1514697080802
 30
0
 11
380.47561802807434
 21
1131.3626221804789
 31
0
  0
ARC
  5
220
330
1F
100
AcDbEntity
  8
0
 62
7
100
AcDbCircle
 10
383.15888918889004
 20
1136.7291905325578
 30
0
 40
5.99999999999932
100
AcDbArc
 50
243.43505998790729
 51
63.435057199492945
  0
LINE
  5
221
330
1F
100
AcDbEntity
  8
0
 62
7
100
AcDbLine
 10
385.84216061088011
 20
1142.095758754049
 30
0
 11
385.84216061088011
 21
1142.095758754049
 31
0
  0
ARC
  5
222
330
1F
100
AcDbEntity
  8
0
 62
7
100
AcDbCircle
 10
517.17284606580483
 20
1359.1838720555209
 30
0
 40
4.99999961950946
100
AcDbArc
 50
333.43506295370048
 51
63.435062953700495
  0
LINE
  5
223
330
1F
100
AcDbEntity
  8
0
 62
7
100
AcDbLine
 10
519.40890496483394
 20
1363.6560121243433
 30
0
 11
492.57606353092973
 21
1377.072368581406
 31
0
  0
ARC
  5
224
330
1F
100
AcDbEntity
  8
0
 62
7
100
AcDbCircle
 10
490.34000412141933
 20
1372.6002283424218
 30
0
 40
5
100
AcDbArc
 50
63.435058593600594
 51
153.43505859360118
  0
LINE
  5
225
330
1F
100
AcDbEntity
  8
0
 62
7
100
AcDbLine
 10
485.8678638824353
 20
1374.8362877519321
 30
0
 11
400.22184176831036
 21
1203.5434230917051
 31
0
  0
ARC
  5
226
330
1F
100
AcDbEntity
  8
0
 62
7
100
AcDbCircle
 10
395.74970152932627
 20
1205.7794825012156
 30
0
 40
5.00000000000006
100
AcDbArc
 50
243.43505859360175
 51
333.43505859359914
  0
LINE
  5
227
330
1F
100
AcDbEntity
  8
0
 62
7
100
AcDbLine
 10
393.513642119816
 20
1201.3073422622315
 30
0
 11
136.35344880097622
 21
1329.8868230686608
 31
0
  0
ARC
  5
228
330
1F
100
AcDbEntity
  8
0
 62
7
100
AcDbCircle
 10
134.11738939146582
 20
1325.4146828296766
 30
0
 40
5
100
AcDbArc
 50
63.435058593600594
 51
153.43505859359885
  0
LINE
  5
229
330
1F
100
AcDbEntity
  8
0
 62
7
100
AcDbLine
 10
129.6452491524818
 20
1327.6507422391871
 30
0
 11
116.22889269541936
 21
1300.817900805283
 31
0
  0
ARC
  5
22A
330
1F
100
AcDbEntity
  8
0
 62
7
100
AcDbCircle
 10
120.70103293440339
 20
1298.5818413957727
 30
0
 40
4.99999999999989
100
AcDbArc
 50
153.43505859360118
 51
243.43505859360059
  0
LINE
  5
22B
330
1F
100
AcDbEntity
  8
0
 62
7
100
AcDbLine
 10
118.46497352489298
 20
1294.1097011567886
 30
0
 11
411.40228875560484
 21
1147.6417450742761
 31
0
  0
ARC
  5
22C
330
1F
100
AcDbEntity
  8
0
 62
7
100
AcDbCircle
 10
413.63834816511525
 20
1152.1138853132602
 30
0
 40
5
100
AcDbArc
 50
243.43505859360059
 51
333.43505859359857
  0
LINE
  5
22D
330
1F
100
AcDbEntity
  8
0
 62
7
100
AcDbLine
 10
418.11048840409921
 20
1149.8778259037497
 30
0
 11
521.64498613462729
 21
1356.9478131564917
 31
0
  0
CIRCLE
  5
22E
330
1F
100
AcDbEntity
  8
0
 62
7
100
AcDbCircle
 10
190.01914452084409
 20
1296.3459062223133
 30
0
 40
2.545
  0
CIRCLE
  5
22F
330
1F
100
AcDbEntity
  8
0
 62
7
100
AcDbCircle
 10
179.42318420731877
 20
1278.5098730705724
 30
0
 40
3.045
  0
CIRCLE
  5
230
330
1F
100
AcDbEntity
  8
0
 62
7
100
AcDbCircle
 10
213.54556364376592
 20
1276.1578543847538
 30
0
 40
3.045
  0
CIRCLE
  5
231
330
1F
100
AcDbEntity
  8
0
 62
7
100
AcDbCircle
 10
434.72696694937451
 20
1237.9004077235127
 30
0
 40
5.02
  0
CIRCLE
  5
232
330
1F
100
AcDbEntity
  8
0
 62
7
100
AcDbCircle
 10
479.44815513974964
 20
1327.3432125035565
 30
0
 40
5.02
  0
CIRCLE
  5
233
330
1F
100
AcDbEntity
  8
0
 62
7
100
AcDbCircle
 10
502.86200107456938
 20
1364.103194018295
 30
0
 40
2.545
  0
LINE
  5
234
330
1F
100
AcDbEntity
  8
0
 62
7
100
AcDbLine
 10
141.34183056971133
 20
1294.2891186038748
 30
0
 11
144.91954276089857
 21
1292.5002710762665
 31
0
  0
ARC
  5
235
330
1F
100
AcDbEntity
  8
0
 62
7
100
AcDbCircle
 10
147.60281405231106
 20
1297.8668393630473
 30
0
 40
6
100
AcDbArc
 50
243.43505859360008
 51
63.435058593599145
  0
LINE
  5
236
330
1F
100
AcDbEntity
  8
0
 62
7
100
AcDbLine
 10
150.28608534372356
 20
1303.233407649828
 30
0
 11
146.70837315253587
 21
1305.0222551774355
 31
0
  0
ARC
  5
237
330
1F
100
AcDbEntity
  8
0
 62
7
100
AcDbCircle
 10
144.02510199171078
 20
1299.6556868253613
 30
0
 40
5.99999999999932
100
AcDbArc
 50
63.435059987806817
 51
243.43505719939242
  0
LINE
  5
238
330
1F
100
AcDbEntity
  8
0
 62
7
100
AcDbLine
 10
141.34183056971133
 20
1294.2891186038748
 30
0
 11
141.34183056971133
 21
1294.2891186038748
 31
0
  0
ARC
  5
239
330
1F
100
AcDbEntity
  8
0
 62
7
100
AcDbCircle
 10
10.010947880507588
 20
1180.0601328658377
 30
0
 40
4.99999961950946
100
AcDbArc
 50
153.43506295380223
 51
243.43506295380163
  0
LINE
  5
23A
330
1F
100
AcDbEntity
  8
0
 62
7
100
AcDbLine
 10
7.7748889814863036
 20
1175.5879927970111
 30
0
 11
34.607730415413769
 21
1162.1716363399955
 31
0
  0
ARC
  5
23B
330
1F
100
AcDbEntity
  8
0
 62
7
100
AcDbCircle
 10
36.843789824916371
 20
1166.6437765789833
 30
0
 40
5
100
AcDbArc
 50
243.43505859369921
 51
333.43505859370038
  0
LINE
  5
23C
330
1F
100
AcDbEntity
  8
0
 62
7
100
AcDbLine
 10
41.31593006390429
 20
1164.4077171694807
 30
0
 11
126.96195217773035
 21
1335.7005818298574
 31
0
  0
ARC
  5
23D
330
1F
100
AcDbEntity
  8
0
 62
7
100
AcDbCircle
 10
131.43409241671836
 20
1333.4645224203548
 30
0
 40
5.00000000000006
100
AcDbArc
 50
63.435058593701392
 51
153.4350585937008
  0
LINE
  5
23E
330
1F
100
AcDbEntity
  8
0
 62
7
100
AcDbLine
 10
133.67015182622086
 20
1337.9366626593428
 30
0
 11
390.83034514528487
 21
1209.3571818533621
 31
0
  0
ARC
  5
23F
330
1F
100
AcDbEntity
  8
0
 62
7
100
AcDbCircle
 10
393.06640455478748
 20
1213.8293220923501
 30
0
 40
5
100
AcDbArc
 50
243.43505859370023
 51
333.43505859369816
  0
LINE
  5
240
330
1F
100
AcDbEntity
  8
0
 62
7
100
AcDbLine
 10
397.53854479377543
 20
1211.5932626828474
 30
0
 11
410.954901250791
 21
1238.4261041167749
 31
0
  0
ARC
  5
241
330
1F
100
AcDbEntity
  8
0
 62
7
100
AcDbCircle
 10
406.48276101180306
 20
1240.6621635262775
 30
0
 40
4.99999999999989
100
AcDbArc
 50
333.43505859370055
 51
63.435058593699054
  0
LINE
  5
242
330
1F
100
AcDbEntity
  8
0
 62
7
100
AcDbLine
 10
408.71882042130568
 20
1245.1343037652653
 30
0
 11
115.78150519033838
 21
1391.6022598472669
 31
0
  0
ARC
  5
243
330
1F
100
AcDbEntity
  8
0
 62
7
100
AcDbCircle
 10
113.54544578083578
 20
1387.1301196082788
 30
0
 40
5
100
AcDbArc
 50
63.435058593700361
 51
153.43505859370029
  0
LINE
  5
244
330
1F
100
AcDbEntity
  8
0
 62
7
100
AcDbLine
 10
109.07330554184787
 20
1389.3661790177814
 30
0
 11
5.5388078116811981
 21
1182.2961917648588
 31
0
  0
CIRCLE
  5
245
330
1F
100
AcDbEntity
  8
0
 62
7
100
AcDbCircle
 10
337.1646494253585
 20
1242.898098699616
 30
0
 40
2.545
  0
CIRCLE
  5
246
330
1F
100
AcDbEntity
  8
0
 62
7
100
AcDbCircle
 10
347.76060973885268
 20
1260.7341318513752
 30
0
 40
3.045
  0
CIRCLE
  5
247
330
1F
100
AcDbEntity
  8
0
 62
7
100
AcDbCircle
 10
313.6382303024015
 20
1263.0861505371342
 30
0
 40
3.045
  0
CIRCLE
  5
248
330
1F
100
AcDbEntity
  8
0
 62
7
100
AcDbCircle
 10
92.4568269967261
 20
1301.3435971979895
 30
0
 40
5.02
  0
CIRCLE
  5
249
330
1F
100
AcDbEntity
  8
0
 62
7
100
AcDbCircle
 10
47.735638806507069
 20
1211.9007924178677
 30
0
 40
5.02
  0
CIRCLE
  5
24A
330
1F
100
AcDbEntity
  8
0
 62
7
100
AcDbCircle
 10
24.321792871751473
 20
1175.1408109030885
 30
0
 40
2.545
  0
LINE
  5
24B
330
1F
100
AcDbEntity
  8
0
 62
7
100
AcDbLine
 10
385.84196337648763
 20
1244.9548863181394
 30
0
 11
382.26425118529733
 21
1246.7437338457414
 31
0
  0
ARC
  5
24C
330
1F
100
AcDbEntity
  8
0
 62
7
100
AcDbCircle
 10
379.58097989389421
 20
1241.377165558956
 30
0
 40
6
100
AcDbArc
 50
63.435058593699637
 51
243.43505859370063
  0
LINE
  5
24D
330
1F
100
AcDbEntity
  8
0
 62
7
100
AcDbLine
 10
376.89770860249109
 20
1236.0105972721703
 30
0
 11
380.47542079368185
 21
1234.2217497445693
 31
0
  0
ARC
  5
24E
330
1F
100
AcDbEntity
  8
0
 62
7
100
AcDbCircle
 10
383.15869195449756
 20
1239.5883180966482
 30
0
 40
5.99999999999932
100
AcDbArc
 50
243.43505998790729
 51
63.435057199492945
  0
LINE
  5
24F
330
1F
100
AcDbEntity
  8
0
 62
7
100
AcDbLine
 10
385.84196337648763
 20
1244.9548863181394
 30
0
 11
385.84196337648763
 21
1244.9548863181394
 31
0
  0
ARC
  5
250
330
1F
100
AcDbEntity
  8
0
 62
7
100
AcDbCircle
 10
517.17264883141229
 20
1462.0429996196112
 30
0
 40
4.99999961950946
100
AcDbArc
 50
333.43506295370048
 51
63.435062953700495
  0
LINE
  5
251
330
1F
100
AcDbEntity
  8
0
 62
7
100
AcDbLine
 10
519.40870773044139
 20
1466.5151396884337
 30
0
 11
492.57586629653719
 21
1479.9314961454961
 31
0
  0
ARC
  5
252
330
1F
100
AcDbEntity
  8
0
 62
7
100
AcDbCircle
 10
490.33980688702678
 20
1475.4593559065122
 30
0
 40
5
100
AcDbArc
 50
63.435058593599436
 51
153.43505859360118
  0
LINE
  5
253
330
1F
100
AcDbEntity
  8
0
 62
7
100
AcDbLine
 10
485.86766664804276
 20
1477.6954153160225
 30
0
 11
400.22164453391781
 21
1306.4025506557953
 31
0
  0
ARC
  5
254
330
1F
100
AcDbEntity
  8
0
 62
7
100
AcDbCircle
 10
395.74950429493373
 20
1308.6386100653058
 30
0
 40
5.00000000000006
100
AcDbArc
 50
243.43505859360175
 51
333.43505859359914
  0
LINE
  5
255
330
1F
100
AcDbEntity
  8
0
 62
7
100
AcDbLine
 10
393.51344488542344
 20
1304.1664698263216
 30
0
 11
136.35325156658371
 21
1432.7459506327511
 31
0
  0
ARC
  5
256
330
1F
100
AcDbEntity
  8
0
 62
7
100
AcDbCircle
 10
134.1171921570733
 20
1428.273810393767
 30
0
 40
5
100
AcDbArc
 50
63.435058593600594
 51
153.43505859359885
  0
LINE
  5
257
330
1F
100
AcDbEntity
  8
0
 62
7
100
AcDbLine
 10
129.64505191808928
 20
1430.5098698032775
 30
0
 11
116.22869546102685
 21
1403.6770283693734
 31
0
  0
ARC
  5
258
330
1F
100
AcDbEntity
  8
0
 62
7
100
AcDbCircle
 10
120.70083570001087
 20
1401.4409689598629
 30
0
 40
4.99999999999989
100
AcDbArc
 50
153.43505859359885
 51
243.43505859359942
  0
LINE
  5
259
330
1F
100
AcDbEntity
  8
0
 62
7
100
AcDbLine
 10
118.46477629050047
 20
1396.9688287208789
 30
0
 11
411.4020915212123
 21
1250.5008726383664
 31
0
  0
ARC
  5
25A
330
1F
100
AcDbEntity
  8
0
 62
7
100
AcDbCircle
 10
413.6381509307227
 20
1254.9730128773504
 30
0
 40
5
100
AcDbArc
 50
243.43505859359942
 51
333.4350585936009
  0
LINE
  5
25B
330
1F
100
AcDbEntity
  8
0
 62
7
100
AcDbLine
 10
418.11029116970667
 20
1252.73695346784
 30
0
 11
521.64478890023474
 21
1459.8069407205821
 31
0
  0
CIRCLE
  5
25C
330
1F
100
AcDbEntity
  8
0
 62
7
100
AcDbCircle
 10
190.01894728645155
 20
1399.2050337864034
 30
0
 40
2.545
  0
CIRCLE
  5
25D
330
1F
100
AcDbEntity
  8
0
 62
7
100
AcDbCircle
 10
179.42298697292622
 20
1381.3690006346626
 30
0
 40
3.045
  0
CIRCLE
  5
25E
330
1F
100
AcDbEntity
  8
0
 62
7
100
AcDbCircle
 10
213.54536640937337
 20
1379.016981948844
 30
0
 40
3.045
  0
CIRCLE
  5
25F
330
1F
100
AcDbEntity
  8
0
 62
7
100
AcDbCircle
 10
434.72676971498197
 20
1340.7595352876028
 30
0
 40
5.02
  0
CIRCLE
  5
260
330
1F
100
AcDbEntity
  8
0
 62
7
100
AcDbCircle
 10
479.44795790535716
 20
1430.2023400676469
 30
0
 40
5.02
  0
CIRCLE
  5
261
330
1F
100
AcDbEntity
  8
0
 62
7
100
AcDbCircle
 10
502.86180384017683
 20
1466.9623215823851
 30
0
 40
2.545
  0
LINE
  5
262
330
1F
100
AcDbEntity
  8
0
 62
7
100
AcDbLine
 10
141.34163333531879
 20
1397.148246167965
 30
0
 11
144.91934552650602
 21
1395.3593986403566
 31
0
  0
ARC
  5
263
330
1F
100
AcDbEntity
  8
0
 62
7
100
AcDbCircle
 10
147.60261681791852
 20
1400.7259669271375
 30
0
 40
6
100
AcDbArc
 50
243.43505859360008
 51
63.435058593600111
  0
LINE
  5
264
330
1F
100
AcDbEntity
  8
0
 62
7
100
AcDbLine
 10
150.285888109331
 20
1406.0925352139184
 30
0
 11
146.70817591814333
 21
1407.8813827415258
 31
0
  0
ARC
  5
265
330
1F
100
AcDbEntity
  8
0
 62
7
100
AcDbCircle
 10
144.02490475731824
 20
1402.5148143894517
 30
0
 40
5.99999999999932
100
AcDbArc
 50
63.435059987806817
 51
243.43505719939338
  0
LINE
  5
266
330
1F
100
AcDbEntity
  8
0
 62
7
100
AcDbLine
 10
141.34163333531879
 20
1397.148246167965
 30
0
 11
141.34163333531879
 21
1397.148246167965
 31
0
  0
ARC
  5
267
330
1F
100
AcDbEntity
  8
0
 62
7
100
AcDbCircle
 10
10.010750646115122
 20
1282.9192604299278
 30
0
 40
4.99999961950946
100
AcDbArc
 50
153.4350629537999
 51
243.43506295380041
  0
LINE
  5
268
330
1F
100
AcDbEntity
  8
0
 62
7
100
AcDbLine
 10
7.7746917470938364
 20
1278.4471203611015
 30
0
 11
34.60753318102131
 21
1265.0307639040859
 31
0
  0
ARC
  5
269
330
1F
100
AcDbEntity
  8
0
 62
7
100
AcDbCircle
 10
36.843592590523905
 20
1269.5029041430737
 30
0
 40
5
100
AcDbArc
 50
243.4350585936993
 51
333.43505859370038
  0
LINE
  5
26A
330
1F
100
AcDbEntity
  8
0
 62
7
100
AcDbLine
 10
41.315732829511823
 20
1267.2668447335711
 30
0
 11
126.96175494333788
 21
1438.5597093939477
 31
0
  0
ARC
  5
26B
330
1F
100
AcDbEntity
  8
0
 62
7
100
AcDbCircle
 10
131.4338951823259
 20
1436.3236499844452
 30
0
 40
5.00000000000006
100
AcDbArc
 50
63.435058593701392
 51
153.43505859370089
  0
LINE
  5
26C
330
1F
100
AcDbEntity
  8
0
 62
7
100
AcDbLine
 10
133.6699545918284
 20
1440.7957902234332
 30
0
 11
390.83014791089244
 21
1312.2163094174523
 31
0
  0
ARC
  5
26D
330
1F
100
AcDbEntity
  8
0
 62
7
100
AcDbCircle
 10
393.06620732039505
 20
1316.6884496564403
 30
0
 40
5
100
AcDbArc
 50
243.43505859370023
 51
333.43505859370055
  0
LINE
  5
26E
330
1F
100
AcDbEntity
  8
0
 62
7
100
AcDbLine
 10
397.538347559383
 20
1314.4523902469377
 30
0
 11
410.95470401639858
 21
1341.2852316808653
 31
0
  0
ARC
  5
26F
330
1F
100
AcDbEntity
  8
0
 62
7
100
AcDbCircle
 10
406.48256377741063
 20
1343.5212910903679
 30
0
 40
4.99999999999989
100
AcDbArc
 50
333.43505859370055
 51
63.435058593698479
  0
LINE
  5
270
330
1F
100
AcDbEntity
  8
0
 62
7
100
AcDbLine
 10
408.71862318691331
 20
1347.9934313293556
 30
0
 11
115.78130795594591
 21
1494.4613874113572
 31
0
  0
ARC
  5
271
330
1F
100
AcDbEntity
  8
0
 62
7
100
AcDbCircle
 10
113.5452485464433
 20
1489.9892471723692
 30
0
 40
5
100
AcDbArc
 50
63.435058593700361
 51
153.43505859370029
  0
LINE
  5
272
330
1F
100
AcDbEntity
  8
0
 62
7
100
AcDbLine
 10
109.0731083074554
 20
1492.2253065818718
 30
0
 11
5.5386105772887317
 21
1285.1553193289492
 31
0
  0
CIRCLE
  5
273
330
1F
100
AcDbEntity
  8
0
 62
7
100
AcDbCircle
 10
337.16445219096613
 20
1345.7572262637063
 30
0
 40
2.545
  0
CIRCLE
  5
274
330
1F
100
AcDbEntity
  8
0
 62
7
100
AcDbCircle
 10
347.76041250446031
 20
1363.5932594154656
 30
0
 40
3.045
  0
CIRCLE
  5
275
330
1F
100
AcDbEntity
  8
0
 62
7
100
AcDbCircle
 10
313.63803306800912
 20
1365.9452781012246
 30
0
 40
3.045
  0
CIRCLE
  5
276
330
1F
100
AcDbEntity
  8
0
 62
7
100
AcDbCircle
 10
92.456629762333634
 20
1404.20272476208
 30
0
 40
5.02
  0
CIRCLE
  5
277
330
1F
100
AcDbEntity
  8
0
 62
7
100
AcDbCircle
 10
47.735441572114595
 20
1314.7599199819581
 30
0
 40
5.02
  0
CIRCLE
  5
278
330
1F
100
AcDbEntity
  8
0
 62
7
100
AcDbCircle
 10
24.321595637359007
 20
1277.9999384671787
 30
0
 40
2.545
  0
LINE
  5
279
330
1F
100
AcDbEntity
  8
0
 62
7
100
AcDbLine
 10
385.84176614209525
 20
1347.8140138822298
 30
0
 11
382.26405395090495
 21
1349.6028614098318
 31
0
  0
ARC
  5
27A
330
1F
100
AcDbEntity
  8
0
 62
7
100
AcDbCircle
 10
379.58078265950178
 20
1344.2362931230464
 30
0
 40
6
100
AcDbArc
 50
63.435058593699154
 51
243.43505859370063
  0
LINE
  5
27B
330
1F
100
AcDbEntity
  8
0
 62
7
100
AcDbLine
 10
376.89751136809866
 20
1338.8697248362607
 30
0
 11
380.47522355928942
 21
1337.0808773086596
 31
0
  0
ARC
  5
27C
330
1F
100
AcDbEntity
  8
0
 62
7
100
AcDbCircle
 10
383.15849472010512
 20
1342.4474456607386
 30
0
 40
5.99999999999932
100
AcDbArc
 50
243.43505998790729
 51
63.435057199492448
  0
LINE
  5
27D
330
1F
100
AcDbEntity
  8
0
 62
7
100
AcDbLine
 10
385.84176614209525
 20
1347.8140138822298
 30
0
 11
385.84176614209525
 21
1347.8140138822298
 31
0
  0
ENDSEC
  0
SECTION
  2
OBJECTS
  0
DICTIONARY
  5
C
330
0
100
AcDbDictionary
280
0
281
1
  3
ACAD_SCALELIST
350
283
  3
ACAD_COLOR
350
295
  3
ACAD_FIELDLIST
350
296
  3
ACAD_GROUP
350
D
  3
ACAD_IMAGE_DICT
350
297
  3
ACAD_LAYOUT
350
1A
  3
ACAD_MATERIAL
350
298
  3
ACAD_MLEADERSTYLE
350
299
  3
ACAD_MLINESTYLE
350
17
  3
ACAD_PLOTSETTINGS
350
19
  3
ACAD_PLOTSTYLENAME
350
E
  3
ACAD_TABLESTYLE
350
29B
  3
ACDB_RECOMPOSE_DATA
350
29F
  3
AcDbVariableDictionary
350
2A0
  3
ACAD_VISUALSTYLE
350
2A3
  3
DWGPROPS
350
2A4
  0
DICTIONARY
  5
29D
330
29C
100
AcDbDictionary
280
0
281
1
  3
ACAD_ROUNDTRIP_2008_TABLESTYLE_CELLSTYLEMAP
360
29E
  0
DICTIONARY
  5
283
102
{ACAD_REACTORS
330
C
102
}
330
C
100
AcDbDictionary
280
0
281
1
  0
DICTIONARY
  5
295
102
{ACAD_REACTORS
330
C
102
}
330
C
100
AcDbDictionary
280
0
281
1
  0
FIELDLIST
  5
296
102
{ACAD_REACTORS
330
C
102
}
330
C
100
AcDbIdSet
100
AcDbFieldList
  0
DICTIONARY
  5
D
102
{ACAD_REACTORS
330
C
102
}
330
C
100
AcDbDictionary
280
0
281
1
  0
DICTIONARY
  5
297
102
{ACAD_REACTORS
330
C
102
}
330
C
100
AcDbDictionary
280
0
281
1
  0
DICTIONARY
  5
1A
102
{ACAD_REACTORS
330
C
102
}
330
C
100
AcDbDictionary
280
0
281
1
  3
Layout1
350
1E
  3
Model
350
22
  0
DICTIONARY
  5
298
102
{ACAD_REACTORS
330
C
102
}
330
C
100
AcDbDictionary
280
0
281
1
  0
DICTIONARY
  5
299
102
{ACAD_REACTORS
330
C
102
}
330
C
100
AcDbDictionary
280
0
281
1
  3
Standard
350
29A
  0
DICTIONARY
  5
17
102
{ACAD_REACTORS
330
C
102
}
330
C
100
AcDbDictionary
280
0
281
1
  3
STANDARD
350
18
  0
DICTIONARY
  5
19
102
{ACAD_REACTORS
330
C
102
}
330
C
100
AcDbDictionary
280
0
281
1
  0
ACDBDICTIONARYWDFLT
  5
E
102
{ACAD_REACTORS
330
C
102
}
330
C
100
AcDbDictionary
280
0
281
1
  3
Normal
350
F
100
AcDbDictionaryWithDefault
340
F
  0
ACDBPLACEHOLDER
  5
F
102
{ACAD_REACTORS
330
E
102
}
330
E
  0
DICTIONARY
  5
29B
102
{ACAD_REACTORS
330
C
102
}
330
C
100
AcDbDictionary
280
0
281
1
  3
Standard
350
29C
  0
XRECORD
  5
29F
102
{ACAD_REACTORS
330
C
102
}
330
C
100
AcDbXrecord
280
1
 90
1
330
29C
  0
DICTIONARY
  5
2A0
102
{ACAD_REACTORS
330
C
102
}
330
C
100
AcDbDictionary
280
0
281
1
  3
DIMASSOC
350
2A1
  3
HIDETEXT
350
2A2
  0
DICTIONARY
  5
2A3
102
{ACAD_REACTORS
330
C
102
}
330
C
100
AcDbDictionary
280
0
281
1
  0
XRECORD
  5
2A4
102
{ACAD_REACTORS
330
C
102
}
330
C
100
AcDbXrecord
280
0
  1
DWGPROPS COOKIE
  2

  3

  4

  6

  7

  8

  9

300
=
301
=
302
=
303
=
304
=
305
=
306
=
307
=
308
=
309
=
 40
0
 41
2461052.91051978
 42
2461052.91051978
  1

 90
0
  0
CELLSTYLEMAP
  5
29E
102
{ACAD_REACTORS
330
29D
102
}
330
29D
100
AcDbCellStyleMap
 90
3
300
CELLSTYLE
  1
TABLEFORMAT_BEGIN
 90
5
170
0
309
TABLEFORMAT_END
  1
CELLSTYLE_BEGIN
 90
3
 91
2
300
_DATA
309
CELLSTYLE_END
300
CELLSTYLE
  1
TABLEFORMAT_BEGIN
 90
5
170
0
309
TABLEFORMAT_END
  1
CELLSTYLE_BEGIN
 90
1
 91
2
300
_TITLE
309
CELLSTYLE_END
300
CELLSTYLE
  1
TABLEFORMAT_BEGIN
 90
5
170
0
309
TABLEFORMAT_END
  1
CELLSTYLE_BEGIN
 90
2
 91
2
300
_HEADER
309
CELLSTYLE_END
  0
LAYOUT
  5
1E
102
{ACAD_REACTORS
330
1A
102
}
330
1A
100
AcDbPlotSettings
  1

  2
C:\Program Files\AutoCAD 2002\plotters\DWF ePlot (optimized for plotting).pc3
  4

  6

 40
0
 41
0
 42
0
 43
0
 44
0
 45
0
 46
0
 47
0
 48
0
 49
0
140
0
141
0
142
1
143
1
 70
688
 72
1
 73
1
 74
1
  7
acad.stb
 75
16
 76
0
 77
0
 78
0
147
1
148
0
149
0
100
AcDbLayout
  1
Layout1
 70
1
 71
1
 10
0
 20
0
 11
420
 21
297
 12
0
 22
0
 32
0
 14
0
 24
0
 34
0
 15
0
 25
0
 35
0
146
0
 13
0
 23
0
 33
0
 16
1
 26
0
 36
0
 17
0
 27
1
 37
0
 76
0
330
27E
  0
LAYOUT
  5
22
102
{ACAD_REACTORS
330
1A
102
}
330
1A
100
AcDbPlotSettings
  1

  2
C:\Program Files\AutoCAD 2002\plotters\DWF ePlot (optimized for plotting).pc3
  4

  6

 40
0
 41
0
 42
0
 43
0
 44
0
 45
0
 46
0
 47
0
 48
0
 49
0
140
0
141
0
142
1
143
1
 70
1712
 72
1
 73
1
 74
0
  7
acad.stb
 75
0
 76
0
 77
0
 78
0
147
1
148
0
149
0
100
AcDbLayout
  1
Model
 70
1
 71
0
 10
0
 20
0
 11
12
 21
9
 12
0
 22
0
 32
0
 14
0
 24
0
 34
0
 15
0
 25
0
 35
0
146
0
 13
0
 23
0
 33
0
 16
1
 26
0
 36
0
 17
0
 27
1
 37
0
 76
0
330
1F
  0
MLEADERSTYLE
  5
29A
102
{ACAD_REACTORS
330
299
102
}
330
299
100
AcDbMLeaderStyle
170
2
171
1
172
0
 90
2
 40
0
 41
0
173
1
 91
0
340
0
 92
-2
290
1
 42
0.09
292
1
 43
0.36
  3
Standard
341
0
 44
0.18
300

342
0
174
1
178
1
175
1
176
0
 93
0
 45
0.18
292
0
297
0
 46
0
343
0
 94
0
 47
1
 49
1
140
1
293
1
141
0
294
1
177
0
142
1
295
0
296
0
143
0.125
  0
MLINESTYLE
  5
18
102
{ACAD_REACTORS
330
17
102
}
330
17
100
AcDbMlineStyle
  2
STANDARD
 70
0
  3

 51
90
 52
90
 71
2
 49
0.5
 62
0
  6
ByLayer
 49
-0.5
 62
0
  6
ByLayer
  0
TABLESTYLE
  5
29C
102
{ACAD_XDICTIONARY
360
29D
102
}
102
{ACAD_REACTORS
330
29B
102
}
330
29B
100
AcDbTableStyle
  3

 70
0
 71
0
 40
0.06
 41
0.06
280
0
281
0
  7
Standard
140
0.18
170
1
 62
0
283
0
 90
512
 91
0
274
-2
284
1
 64
0
275
-2
285
1
 65
0
276
-2
286
1
 66
0
277
-2
287
1
 67
0
278
-2
288
1
 68
0
279
-2
289
1
 69
0
  7
Standard
140
0.18
170
1
 62
0
283
0
 90
512
 91
0
274
-2
284
1
 64
0
275
-2
285
1
 65
0
276
-2
286
1
 66
0
277
-2
287
1
 67
0
278
-2
288
1
 68
0
279
-2
289
1
 69
0
  7
Standard
140
0.18
170
1
 62
0
283
0
 90
512
 91
0
274
-2
284
1
 64
0
275
-2
285
1
 65
0
276
-2
286
1
 66
0
277
-2
287
1
 67
0
278
-2
288
1
 68
0
279
-2
289
1
 69
0
  0
DICTIONARYVAR
  5
2A1
102
{ACAD_REACTORS
330
2A0
102
}
330
2A0
100
DictionaryVariables
280
0
  1
1
  0
DICTIONARYVAR
  5
2A2
102
{ACAD_REACTORS
330
2A0
102
}
330
2A0
100
DictionaryVariables
280
0
  1
2
  0
ENDSEC
999
Created By CadLib version 4.0.38.30
999
CadLib website: www.woutware.com
  0
EOF
