  0
SECTION
  2
HEADER
  9
$ACADVER
  1
AC1015
  9
$DWGCODEPAGE
  3
ansi_1252
  9
$INSBASE
 10
0
 20
0
 30
0
  9
$EXTMIN
 10
9.9999851954635233E-08
 20
1E-07
 30
0
  9
$EXTMAX
 10
590.00000009999985
 20
1480.0000001
 30
0
  9
$LIMMIN
 10
0
 20
0
  9
$LIMMAX
 10
12
 20
9
  9
$SNAPMODE
 70
0
  9
$SNAPUNIT
 10
1
 20
1
  9
$SNAPBASE
 10
0
 20
0
  9
$SNAPANG
 50
0
  9
$SNAPSTYLE
 70
0
  9
$SNAPISOPAIR
 70
0
  9
$ORTHOMODE
 70
0
  9
$REGENMODE
 70
1
  9
$FILLMODE
 70
1
  9
$QTEXTMODE
 70
0
  9
$MIRRTEXT
 70
1
  9
$LTSCALE
 40
1
  9
$OSMODE
 70
0
  9
$ATTMODE
 70
1
  9
$TEXTSIZE
 40
0.2
  9
$TRACEWID
 40
0.05
  9
$TEXTSTYLE
  7
Standard
  9
$CLAYER
  8
0
  9
$CELTYPE
  6
ByLayer
  9
$CECOLOR
 62
256
  9
$CELTSCALE
 40
1
  9
$DISPSILH
 70
0
  9
$DIMSCALE
 40
1
  9
$DIMASZ
 40
0.18
  9
$DIMEXO
 40
0.0625
  9
$DIMDLI
 40
0.38
  9
$DIMRND
 40
0
  9
$DIMDLE
 40
0
  9
$DIMEXE
 40
0.18
  9
$DIMTP
 40
0
  9
$DIMTM
 40
0
  9
$DIMTXT
 40
0.18
  9
$DIMCEN
 40
0.09
  9
$DIMTSZ
 40
0
  9
$DIMTOL
 70
0
  9
$DIMLIM
 70
0
  9
$DIMTIH
 70
1
  9
$DIMTOH
 70
1
  9
$DIMSE1
 70
0
  9
$DIMSE2
 70
0
  9
$DIMTAD
 70
0
  9
$DIMZIN
 70
0
  9
$DIMBLK
  1

  9
$DIMASO
 70
1
  9
$DIMSHO
 70
1
  9
$DIMPOST
  1

  9
$DIMAPOST
  1

  9
$DIMALT
 70
0
  9
$DIMALTD
 70
2
  9
$DIMALTF
 40
0.03937007874015748
  9
$DIMLFAC
 40
1
  9
$DIMTOFL
 70
0
  9
$DIMTVP
 40
0
  9
$DIMTIX
 70
0
  9
$DIMSOXD
 70
0
  9
$DIMSAH
 70
0
  9
$DIMBLK1
  1

  9
$DIMBLK2
  1

  9
$DIMSTYLE
  2
Standard
  9
$DIMCLRD
 70
0
  9
$DIMCLRE
 70
0
  9
$DIMCLRT
 70
0
  9
$DIMTFAC
 40
1
  9
$DIMGAP
 40
0.09
  9
$DIMJUST
 70
0
  9
$DIMSD1
 70
0
  9
$DIMSD2
 70
0
  9
$DIMTOLJ
 70
1
  9
$DIMTZIN
 70
0
  9
$DIMALTZ
 70
0
  9
$DIMALTTZ
 70
0
  9
$DIMUPT
 70
0
  9
$DIMDEC
 70
4
  9
$DIMTDEC
 70
4
  9
$DIMALTU
 70
2
  9
$DIMALTTD
 70
0
  9
$DIMTXSTY
  7
Standard
  9
$DIMAUNIT
 70
0
  9
$DIMADEC
 70
0
  9
$DIMALTRND
 40
0
  9
$DIMAZIN
 70
0
  9
$DIMDSEP
 70
46
  9
$DIMATFIT
 70
0
  9
$DIMFRAC
 70
0
  9
$DIMLDRBLK
  1

  9
$DIMLUNIT
 70
2
  9
$DIMLWD
 70
-2
  9
$DIMLWE
 70
-2
  9
$LUNITS
 70
2
  9
$LUPREC
 70
4
  9
$SKETCHINC
 40
0.1
  9
$FILLETRAD
 40
0
  9
$AUNITS
 70
0
  9
$AUPREC
 70
0
  9
$MENU
  1
.
  9
$ELEVATION
 40
0
  9
$PELEVATION
 40
0
  9
$THICKNESS
 40
0
  9
$LIMCHECK
 70
0
  9
$CHAMFERA
 40
0.5
  9
$CHAMFERB
 40
0.5
  9
$CHAMFERC
 40
0
  9
$CHAMFERD
 40
0
  9
$SKPOLY
 70
0
  9
$TDCREATE
 40
2460998.1034367131
  9
$TDUCREATE
 40
2460997.7701033796
  9
$TDUPDATE
 40
2460998.1034367131
  9
$TDUUPDATE
 40
2460997.7701033796
  9
$TDINDWG
 40
0
  9
$TDUSRTIMER
 40
1.1574074074074074E-08
  9
$USRTIMER
 70
1
  9
$ANGBASE
 50
0
  9
$ANGDIR
 70
1
  9
$PDMODE
 70
0
  9
$PDSIZE
 40
0
  9
$PLINEWID
 40
0
  9
$SPLFRAME
 70
0
  9
$SPLINETYPE
 70
6
  9
$SPLINESEGS
 70
8
  9
$HANDSEED
  5
584
  9
$SURFTAB1
 70
6
  9
$SURFTAB2
 70
6
  9
$SURFTYPE
 70
6
  9
$SURFU
 70
6
  9
$SURFV
 70
6
  9
$UCSORG
 10
0
 20
0
 30
0
  9
$UCSXDIR
 10
1
 20
0
 30
0
  9
$UCSYDIR
 10
0
 20
1
 30
0
  9
$UCSORTHOREF
  2

  9
$UCSORTHOVIEW
 70
0
  9
$UCSORGTOP
 10
0
 20
0
 30
0
  9
$UCSORGBOTTOM
 10
0
 20
0
 30
0
  9
$UCSORGLEFT
 10
0
 20
0
 30
0
  9
$UCSORGRIGHT
 10
0
 20
0
 30
0
  9
$UCSORGFRONT
 10
0
 20
0
 30
0
  9
$UCSORGBACK
 10
0
 20
0
 30
0
  9
$PUCSORG
 10
0
 20
0
 30
0
  9
$PUCSXDIR
 10
1
 20
0
 30
0
  9
$PUCSYDIR
 10
0
 20
1
 30
0
  9
$PUCSORTHOREF
  2

  9
$PUCSORTHOVIEW
 70
0
  9
$PUCSORGTOP
 10
0
 20
0
 30
0
  9
$PUCSORGBOTTOM
 10
0
 20
0
 30
0
  9
$PUCSORGLEFT
 10
0
 20
0
 30
0
  9
$PUCSORGRIGHT
 10
0
 20
0
 30
0
  9
$PUCSORGFRONT
 10
0
 20
0
 30
0
  9
$PUCSORGBACK
 10
0
 20
0
 30
0
  9
$USERI1
 70
0
  9
$USERI2
 70
0
  9
$USERI3
 70
0
  9
$USERI4
 70
0
  9
$USERI5
 70
0
  9
$USERR1
 40
0
  9
$USERR2
 40
0
  9
$USERR3
 40
0
  9
$USERR4
 40
0
  9
$USERR5
 40
0
  9
$WORLDVIEW
 70
1
  9
$SHADEDGE
 70
3
  9
$SHADEDIF
 70
70
  9
$TILEMODE
 70
1
  9
$MAXACTVP
 70
48
  9
$PINSBASE
 10
0
 20
0
 30
0
  9
$PLIMCHECK
 70
0
  9
$PEXTMIN
 10
1E+20
 20
1E+20
 30
1E+20
  9
$PEXTMAX
 10
-1E+20
 20
-1E+20
 30
-1E+20
  9
$PLIMMAX
 10
0
 20
0
  9
$PLIMMIN
 10
0
 20
0
  9
$UNITMODE
 70
0
  9
$VISRETAIN
 70
1
  9
$PLINEGEN
 70
1
  9
$PSLTSCALE
 70
1
  9
$TREEDEPTH
 70
3020
  9
$CMLSTYLE
  2
STANDARD
  9
$CMLJUST
 70
0
  9
$CMLSCALE
 40
1
  9
$PROXYGRAPHICS
 70
1
  9
$MEASUREMENT
 70
1
  9
$CELWEIGHT
370
-1
  9
$ENDCAPS
280
0
  9
$JOINSTYLE
280
0
  9
$LWDISPLAY
290
1
  9
$INSUNITS
 70
4
  9
$HYPERLINKBASE
  1

  9
$XEDIT
290
1
  9
$CEPSNTYPE
380
0
  9
$PSTYLEMODE
290
0
  9
$FINGERPRINTGUID
  2

  9
$VERSIONGUID
  2

  9
$EXTNAMES
290
1
  9
$PSVPSCALE
 40
0
  9
$CSHADOW
280
0
  9
$SHADOWPLANELOCATION
 40
0
  0
ENDSEC
  0
SECTION
  2
CLASSES
  0
CLASS
  1
RASTERVARIABLES
  2
AcDbRasterVariables
  3
ISM
 90
0
280
0
281
0
  0
CLASS
  1
IMAGEDEF
  2
AcDbRasterImageDef
  3
ISM
 90
0
280
0
281
0
  0
CLASS
  1
IMAGEDEF_REACTOR
  2
AcDbRasterImageDefReactor
  3
ISM
 90
1
280
0
281
0
  0
CLASS
  1
IMAGE
  2
AcDbRasterImage
  3
ISM
 90
127
280
0
281
1
  0
CLASS
  1
ACAD_EVALUATION_GRAPH
  2
AcDbEvalGraph
  3
ObjectDBX Classes
 90
1153
280
0
281
0
  0
CLASS
  1
BLOCKPOINTPARAMETER
  2
AcDbBlockPointParameter
  3
ObjectDBX Classes
 90
1153
280
0
281
0
  0
CLASS
  1
BLOCKBASEPOINTPARAMETER
  2
AcDbBlockBasepointParameter
  3
ObjectDBX Classes
 90
1153
280
0
281
0
  0
CLASS
  1
BLOCKLOOKUPPARAMETER
  2
AcDbBlockLookupParameter
  3
ObjectDBX Classes
 90
1153
280
0
281
0
  0
CLASS
  1
BLOCKVISIBILITYPARAMETER
  2
AcDbBlockVisibilityParameter
  3
ObjectDBX Classes
 90
1153
280
0
281
0
  0
CLASS
  1
BLOCKPROPERTIESTABLE
  2
AcDbBlockPropertiesTable
  3
ObjectDBX Classes
 90
1153
280
0
281
0
  0
CLASS
  1
BLOCKPOLARPARAMETER
  2
AcDbBlockPolarParameter
  3
ObjectDBX Classes
 90
1153
280
0
281
0
  0
CLASS
  1
BLOCKROTATIONPARAMETER
  2
AcDbBlockRotationParameter
  3
ObjectDBX Classes
 90
1153
280
0
281
0
  0
CLASS
  1
BLOCKLINEARPARAMETER
  2
AcDbBlockLinearParameter
  3
ObjectDBX Classes
 90
1153
280
0
281
0
  0
CLASS
  1
BLOCKXYPARAMETER
  2
AcDbBlockXYParameter
  3
ObjectDBX Classes
 90
1153
280
0
281
0
  0
CLASS
  1
BLOCKFLIPPARAMETER
  2
AcDbBlockFlipParameter
  3
ObjectDBX Classes
 90
1153
280
0
281
0
  0
CLASS
  1
BLOCKALIGNMENTPARAMETER
  2
AcDbBlockAlignmentParameter
  3
ObjectDBX Classes
 90
1153
280
0
281
0
  0
CLASS
  1
BLOCKROTATEACTION
  2
AcDbBlockRotateAction
  3
ObjectDBX Classes
 90
1153
280
0
281
0
  0
CLASS
  1
BLOCKSCALEACTION
  2
AcDbBlockScaleAction
  3
ObjectDBX Classes
 90
1153
280
0
281
0
  0
CLASS
  1
BLOCKARRAYACTION
  2
AcDbBlockArrayAction
  3
ObjectDBX Classes
 90
1153
280
0
281
0
  0
CLASS
  1
BLOCKFLIPACTION
  2
AcDbBlockFlipAction
  3
ObjectDBX Classes
 90
1153
280
0
281
0
  0
CLASS
  1
BLOCKLOOKUPACTION
  2
AcDbBlockLookupAction
  3
ObjectDBX Classes
 90
1153
280
0
281
0
  0
CLASS
  1
BLOCKMOVEACTION
  2
AcDbBlockMoveAction
  3
ObjectDBX Classes
 90
1153
280
0
281
0
  0
CLASS
  1
BLOCKPOLARSTRETCHACTION
  2
AcDbBlockPolarStretchAction
  3
ObjectDBX Classes
 90
1153
280
0
281
0
  0
CLASS
  1
BLOCKSTRETCHACTION
  2
AcDbBlockStretchAction
  3
ObjectDBX Classes
 90
1153
280
0
281
0
  0
CLASS
  1
BLOCKALIGNMENTGRIP
  2
AcDbBlockAlignmentGrip
  3
ObjectDBX Classes
 90
1153
280
0
281
0
  0
CLASS
  1
BLOCKFLIPGRIP
  2
AcDbBlockFlipGrip
  3
ObjectDBX Classes
 90
1153
280
0
281
0
  0
CLASS
  1
ACDB_BLOCKREPRESENTATION_DATA
  2
AcDbBlockRepresentationData
  3
ObjectDBX Classes
 90
1153
280
0
281
0
  0
CLASS
  1
ACDB_DYNAMICBLOCKPURGEPREVENTER_VERSION
  2
AcDbDynamicBlockPurgePreventer
  3
ObjectDBX Classes
 90
1153
280
0
281
0
  0
CLASS
  1
BLOCKLINEARGRIP
  2
AcDbBlockLinearGrip
  3
ObjectDBX Classes
 90
1153
280
0
281
0
  0
CLASS
  1
BLOCKLOOKUPGRIP
  2
AcDbBlockLookupGrip
  3
ObjectDBX Classes
 90
1153
280
0
281
0
  0
CLASS
  1
BLOCKPOLARGRIP
  2
AcDbBlockPolarGrip
  3
ObjectDBX Classes
 90
1153
280
0
281
0
  0
CLASS
  1
BLOCKPROPERTIESTABLEGRIP
  2
AcDbBlockPropertiesTableGrip
  3
ObjectDBX Classes
 90
1153
280
0
281
0
  0
CLASS
  1
BLOCKROTATIONGRIP
  2
AcDbBlockRotationGrip
  3
ObjectDBX Classes
 90
1153
280
0
281
0
  0
CLASS
  1
BLOCKVISIBILITYGRIP
  2
AcDbBlockVisibilityGrip
  3
ObjectDBX Classes
 90
1153
280
0
281
0
  0
CLASS
  1
BLOCKXYGRIP
  2
AcDbBlockXYGrip
  3
ObjectDBX Classes
 90
1153
280
0
281
0
  0
CLASS
  1
BLOCKGRIPLOCATIONCOMPONENT
  2
AcDbBlockGripExpr
  3
ObjectDBX Classes
 90
1153
280
0
281
0
  0
CLASS
  1
ACDB_DYNAMICBLOCKPROXYNODE
  2
AcDbDynamicBlockProxyNode
  3
ObjectDBX Classes
 90
1153
280
0
281
0
  0
CLASS
  1
BLOCKLINEARCONSTRAINTPARAMETER
  2
AcDbBlockLinearConstraintParameter
  3
ObjectDBX Classes
 90
1153
280
0
281
0
  0
CLASS
  1
BLOCKHORIZONTALCONSTRAINTPARAMETER
  2
AcDbBlockHorizontalConstraintParameter
  3
ObjectDBX Classes
 90
1153
280
0
281
0
  0
CLASS
  1
BLOCKVERTICALCONSTRAINTPARAMETER
  2
AcDbBlockVerticalConstraintParameter
  3
ObjectDBX Classes
 90
1153
280
0
281
0
  0
CLASS
  1
BLOCKALIGNEDCONSTRAINTPARAMETER
  2
AcDbBlockAlignedConstraintParameter
  3
ObjectDBX Classes
 90
1153
280
0
281
0
  0
CLASS
  1
BLOCKANGULARCONSTRAINTPARAMETER
  2
AcDbBlockAngularConstraintParameter
  3
ObjectDBX Classes
 90
1153
280
0
281
0
  0
CLASS
  1
BLOCKDIAMETRICCONSTRAINTPARAMETER
  2
AcDbBlockDiametricConstraintParameter
  3
ObjectDBX Classes
 90
1153
280
0
281
0
  0
CLASS
  1
BLOCKRADIALCONSTRAINTPARAMETER
  2
AcDbBlockRadialConstraintParameter
  3
ObjectDBX Classes
 90
1153
280
0
281
0
  0
ENDSEC
  0
SECTION
  2
TABLES
  0
TABLE
  2
VPORT
  5
8
330
0
100
AcDbSymbolTable
 70
1
  0
VPORT
  5
55F
330
8
100
AcDbSymbolTableRecord
100
AcDbViewportTableRecord
  2
*Active
 70
64
 10
0
 20
0
 11
1
 21
1
 12
295.00000009999985
 22
740.00000010000008
 13
0
 23
0
 14
1
 24
1
 15
0
 25
0
 16
0
 26
0
 36
1
 17
0
 27
0
 37
0
 40
1480
 41
0.39864864864864863
 42
50
 43
0
 44
0
 50
0
 51
0
 71
0
 72
20000
 73
20000
 74
1
 75
0
 76
0
 77
0
 78
0
281
0
 65
1
110
0
120
0
130
0
111
1
121
0
131
0
112
0
122
1
132
0
 79
0
146
0
  0
ENDTAB
  0
TABLE
  2
LTYPE
  5
5
100
AcDbSymbolTable
 70
3
  0
LTYPE
  5
16
330
5
100
AcDbSymbolTableRecord
100
AcDbLinetypeTableRecord
  2
Continuous
  3
Solid line
 70
64
 72
65
 73
0
 40
0
  0
LTYPE
  5
14
330
5
100
AcDbSymbolTableRecord
100
AcDbLinetypeTableRecord
  2
ByBlock
  3

 70
64
 72
65
 73
0
 40
0
  0
LTYPE
  5
15
330
5
100
AcDbSymbolTableRecord
100
AcDbLinetypeTableRecord
  2
ByLayer
  3

 70
64
 72
65
 73
0
 40
0
  0
ENDTAB
  0
TABLE
  2
LAYER
  5
2
100
AcDbSymbolTable
 70
3
  0
LAYER
  5
10
330
2
100
AcDbSymbolTableRecord
100
AcDbLayerTableRecord
 70
64
  2
0
 62
7
  6
Continuous
370
-3
390
F
  0
LAYER
  5
27
330
2
100
AcDbSymbolTableRecord
100
AcDbLayerTableRecord
 70
64
  2
sheet
 62
18
  6
Continuous
370
-3
390
F
  0
LAYER
  5
28
330
2
100
AcDbSymbolTableRecord
100
AcDbLayerTableRecord
 70
64
  2
DEFPOINTS
 62
7
  6
Continuous
290
0
370
-3
390
F
  0
ENDTAB
  0
TABLE
  2
STYLE
  5
3
100
AcDbSymbolTable
 70
1
  0
STYLE
  5
11
330
3
100
AcDbSymbolTableRecord
100
AcDbTextStyleTableRecord
  2
Standard
 70
64
 40
0
 41
1
 50
0
 71
0
 42
0.2
  3
txt.shx
  0
ENDTAB
  0
TABLE
  2
VIEW
  5
6
100
AcDbSymbolTable
 70
0
  0
ENDTAB
  0
TABLE
  2
UCS
  5
7
100
AcDbSymbolTable
 70
0
  0
ENDTAB
  0
TABLE
  2
APPID
  5
9
330
0
100
AcDbSymbolTable
 70
2
  0
APPID
  5
12
330
0
100
AcDbSymbolTableRecord
100
AcDbRegAppTableRecord
  2
ACAD
 70
64
  0
APPID
  5
582
330
0
100
AcDbSymbolTableRecord
100
AcDbRegAppTableRecord
  2
ACAD_MLEADERVER
 70
64
  0
ENDTAB
  0
TABLE
  2
DIMSTYLE
  5
A
330
0
100
AcDbSymbolTable
 70
1
100
AcDbDimStyleTable
 71
0
  0
DIMSTYLE
105
55E
330
A
100
AcDbSymbolTableRecord
100
AcDbDimStyleTableRecord
  2
Standard
 70
64
  3

  4

 40
1
 41
0.18
 42
0.0625
 43
0.38
 44
0.18
 45
0
 46
0
 47
0
 48
0
140
0.18
141
0.09
142
0
143
1
144
1
145
0
146
1
147
0.09
148
0
 71
0
 72
0
 73
1
 74
1
 75
0
 76
0
 77
0
 78
0
 79
0
170
0
171
2
172
0
173
0
174
0
175
0
179
0
271
4
272
4
273
2
274
0
275
0
276
0
277
2
278
46
279
0
280
0
281
0
282
0
283
1
284
0
285
0
286
0
288
0
289
0
340
11
371
-2
372
-2
  0
ENDTAB
  0
TABLE
  2
BLOCK_RECORD
  5
1
330
0
100
AcDbSymbolTable
 70
3
  0
BLOCK_RECORD
  5
1F
330
1
100
AcDbSymbolTableRecord
100
AcDbBlockTableRecord
  2
*Model_Space
340
22
  0
BLOCK_RECORD
  5
55B
330
1
100
AcDbSymbolTableRecord
100
AcDbBlockTableRecord
  2
*Paper_Space
340
1E
  0
ENDTAB
  0
ENDSEC
  0
SECTION
  2
BLOCKS
  0
BLOCK
  5
20
330
1F
100
AcDbEntity
  8
0
100
AcDbBlockBegin
  2
*Model_Space
 70
64
 10
0
 20
0
 30
0
  3
*Model_Space
  0
ENDBLK
  5
21
330
1F
100
AcDbEntity
  8
0
100
AcDbBlockEnd
  0
BLOCK
  5
55C
330
55B
100
AcDbEntity
  8
0
 67
1
100
AcDbBlockBegin
  2
*Paper_Space
 70
64
 10
0
 20
0
 30
0
  3
*Paper_Space
  0
ENDBLK
  5
55D
330
55B
100
AcDbEntity
  8
0
100
AcDbBlockEnd
  0
ENDSEC
  0
SECTION
  2
ENTITIES
  0
LINE
  5
29
330
1F
100
AcDbEntity
  8
sheet
 62
18
100
AcDbLine
 10
590.00000009999985
 20
1E-07
 30
0
 11
590.00000009999985
 21
1480.0000001
 31
0
  0
LINE
  5
2A
330
1F
100
AcDbEntity
  8
sheet
 62
18
100
AcDbLine
 10
590.00000009999985
 20
1480.0000001
 30
0
 11
9.9999851954635233E-08
 21
1480.0000001
 31
0
  0
LINE
  5
2B
330
1F
100
AcDbEntity
  8
sheet
 62
18
100
AcDbLine
 10
9.9999851954635233E-08
 20
1480.0000001
 30
0
 11
9.9999851954635233E-08
 21
1.0000003612708057E-07
 31
0
  0
LINE
  5
2C
330
1F
100
AcDbEntity
  8
sheet
 62
18
100
AcDbLine
 10
9.9999851954635233E-08
 20
1.0000003612708057E-07
 30
0
 11
590.00000009999985
 21
1E-07
 31
0
  0
LINE
  5
2D
330
1F
100
AcDbEntity
  8
0
 62
7
100
AcDbLine
 10
37.921658782488521
 20
1318.7057286657202
 30
0
 11
37.921658782488521
 21
1381.2057291065023
 31
0
  0
ARC
  5
2E
330
1F
100
AcDbEntity
  8
0
 62
7
100
AcDbCircle
 10
42.92165878222113
 20
1381.2057291067697
 30
0
 40
4.99999999973235
100
AcDbArc
 50
89.999999996935912
 51
180.00000000306406
  0
LINE
  5
2F
330
1F
100
AcDbEntity
  8
0
 62
7
100
AcDbLine
 10
42.921658782488521
 20
1386.2057291065023
 30
0
 11
145.17165899916063
 21
1386.2057291065023
 31
0
  0
ARC
  5
30
330
1F
100
AcDbEntity
  8
0
 62
7
100
AcDbCircle
 10
145.17165878248852
 20
1381.2057291065023
 30
0
 40
5
100
AcDbArc
 50
0
 51
89.999997517120562
  0
LINE
  5
31
330
1F
100
AcDbEntity
  8
0
 62
7
100
AcDbLine
 10
150.17165878248852
 20
1381.2057291065023
 30
0
 11
150.17165878248989
 21
1372.4307049031752
 31
0
  0
ARC
  5
32
330
1F
100
AcDbEntity
  8
0
 62
7
100
AcDbCircle
 10
155.17165878248989
 20
1372.4307046924407
 30
0
 40
5
100
AcDbArc
 50
179.99999758516086
 51
270
  0
LINE
  5
33
330
1F
100
AcDbEntity
  8
0
 62
7
100
AcDbLine
 10
155.17165878248989
 20
1367.4307046924407
 30
0
 11
190.17165877881962
 21
1367.4307046924407
 31
0
  0
ARC
  5
34
330
1F
100
AcDbEntity
  8
0
 62
7
100
AcDbCircle
 10
190.17165878248852
 20
1372.4307046924407
 30
0
 40
5.00000000000002
100
AcDbArc
 50
269.99999995795747
 51
0
  0
LINE
  5
35
330
1F
100
AcDbEntity
  8
0
 62
7
100
AcDbLine
 10
195.17165878248852
 20
1372.4307046924407
 30
0
 11
195.17165878248852
 21
1381.2057291065023
 31
0
  0
ARC
  5
36
330
1F
100
AcDbEntity
  8
0
 62
7
100
AcDbCircle
 10
200.17165878236256
 20
1381.2057291066287
 30
0
 40
4.99999999987383
100
AcDbArc
 50
89.999999998540915
 51
180.00000000144865
  0
LINE
  5
37
330
1F
100
AcDbEntity
  8
0
 62
7
100
AcDbLine
 10
200.17165878248989
 20
1386.2057291065023
 30
0
 11
238.92162826124377
 21
1386.2057291065023
 31
0
  0
ARC
  5
38
330
1F
100
AcDbEntity
  8
0
 62
7
100
AcDbCircle
 10
238.92162826527465
 20
1391.2057291061385
 30
0
 40
4.99999999963572
100
AcDbArc
 50
269.99999995380949
 51
359.99999495318889
  0
LINE
  5
39
330
1F
100
AcDbEntity
  8
0
 62
7
100
AcDbLine
 10
243.92162826491085
 20
1391.2057286657212
 30
0
 11
243.92162826491085
 21
1467.2057284527166
 31
0
  0
ARC
  5
3A
330
1F
100
AcDbEntity
  8
0
 62
7
100
AcDbCircle
 10
238.92162826491085
 20
1467.2057291065023
 30
0
 40
5
100
AcDbArc
 50
359.99999250816751
 51
90
  0
LINE
  5
3B
330
1F
100
AcDbEntity
  8
0
 62
7
100
AcDbLine
 10
238.92162826491085
 20
1472.2057291065023
 30
0
 11
17.921658782488521
 21
1472.2057291065023
 31
0
  0
ARC
  5
3C
330
1F
100
AcDbEntity
  8
0
 62
7
100
AcDbCircle
 10
17.921658782340728
 20
1467.2057291066506
 30
0
 40
4.99999999985213
100
AcDbArc
 50
89.999999998306421
 51
180.00000000169879
  0
LINE
  5
3D
330
1F
100
AcDbEntity
  8
0
 62
7
100
AcDbLine
 10
12.921658782488521
 20
1467.2057291065023
 30
0
 11
12.921658782488521
 21
1318.7057293172368
 31
0
  0
ARC
  5
3E
330
1F
100
AcDbEntity
  8
0
 62
7
100
AcDbCircle
 10
17.921658782488521
 20
1318.7057291065023
 30
0
 40
5
100
AcDbArc
 50
179.99999758516086
 51
269.99999758516083
  0
LINE
  5
3F
330
1F
100
AcDbEntity
  8
0
 62
7
100
AcDbLine
 10
17.921658571754051
 20
1313.7057291065023
 30
0
 11
32.921658782488521
 21
1313.7057291065023
 31
0
  0
ARC
  5
40
330
1F
100
AcDbEntity
  8
0
 62
7
100
AcDbCircle
 10
32.921658782488521
 20
1318.7057291065023
 30
0
 40
5.00000000000002
100
AcDbArc
 50
270
 51
359.99999494900965
  0
CIRCLE
  5
41
330
1F
100
AcDbEntity
  8
0
 62
7
100
AcDbCircle
 10
228.92162826491085
 20
1393.2057291065023
 30
0
 40
3.58
  0
CIRCLE
  5
42
330
1F
100
AcDbEntity
  8
0
 62
7
100
AcDbCircle
 10
234.57165267897381
 20
1437.0057321582601
 30
0
 40
3.58
  0
CIRCLE
  5
43
330
1F
100
AcDbEntity
  8
0
 62
7
100
AcDbCircle
 10
19.921658782488521
 20
1393.2057291065023
 30
0
 40
3.58
  0
CIRCLE
  5
44
330
1F
100
AcDbEntity
  8
0
 62
7
100
AcDbCircle
 10
22.171658782488521
 20
1326.2057291065023
 30
0
 40
3.58
  0
LINE
  5
45
330
1F
100
AcDbEntity
  8
0
 62
7
100
AcDbLine
 10
63.421658982687859
 20
1455.1257443652923
 30
0
 11
65.421658582290547
 21
1455.1257443652923
 31
0
  0
ARC
  5
46
330
1F
100
AcDbEntity
  8
0
 62
7
100
AcDbCircle
 10
65.4216510107658
 20
1459.7057443652923
 30
0
 40
4.58000000000607
100
AcDbArc
 50
270.00009471974073
 51
89.9999002712907
  0
LINE
  5
47
330
1F
100
AcDbEntity
  8
0
 62
7
100
AcDbLine
 10
65.421658982687859
 20
1464.2857443652913
 30
0
 11
63.421658582290547
 21
1464.2857443652913
 31
0
  0
ARC
  5
48
330
1F
100
AcDbEntity
  8
0
 62
7
100
AcDbCircle
 10
63.421644642362935
 20
1459.7057443652914
 30
0
 40
4.57999999997765
100
AcDbArc
 50
89.999825611567928
 51
270.00017939740064
  0
LINE
  5
49
330
1F
100
AcDbEntity
  8
0
 62
7
100
AcDbLine
 10
163.42165898268786
 20
1455.1257443652923
 30
0
 11
165.42165858229055
 21
1455.1257443652923
 31
0
  0
ARC
  5
4A
330
1F
100
AcDbEntity
  8
0
 62
7
100
AcDbCircle
 10
165.42163776959069
 20
1459.7057443652923
 30
0
 40
4.58000000004768
100
AcDbArc
 50
270.00026036678213
 51
89.999734624249285
  0
LINE
  5
4B
330
1F
100
AcDbEntity
  8
0
 62
7
100
AcDbLine
 10
165.42165898268786
 20
1464.2857443652913
 30
0
 11
163.42165858229055
 21
1464.2857443652913
 31
0
  0
ARC
  5
4C
330
1F
100
AcDbEntity
  8
0
 62
7
100
AcDbCircle
 10
163.42163560172276
 20
1459.7057443652914
 30
0
 40
4.57999999994081
100
AcDbArc
 50
89.999712513199725
 51
270.00029249576886
  0
LINE
  5
4D
330
1F
100
AcDbEntity
  8
0
 62
7
100
AcDbLine
 10
223.42162846510973
 20
1455.1257443652923
 30
0
 11
225.42162806471288
 21
1455.1257443652923
 31
0
  0
ARC
  5
4E
330
1F
100
AcDbEntity
  8
0
 62
7
100
AcDbCircle
 10
225.42164025285592
 20
1459.7057443652914
 30
0
 40
4.57999999998379
100
AcDbArc
 50
269.999847526385
 51
90.0001474646521
  0
LINE
  5
4F
330
1F
100
AcDbEntity
  8
0
 62
7
100
AcDbLine
 10
225.42162846510973
 20
1464.2857443652913
 30
0
 11
223.42162806471288
 21
1464.2857443652913
 31
0
  0
ARC
  5
50
330
1F
100
AcDbEntity
  8
0
 62
7
100
AcDbCircle
 10
223.42164730166769
 20
1459.7057443652923
 30
0
 40
4.58000000003904
100
AcDbArc
 50
90.000240654218672
 51
269.99976435474423
  0
ARC
  5
51
330
1F
100
AcDbEntity
  8
0
 62
7
100
AcDbCircle
 10
172.67165878248852
 20
1393.4307049681531
 30
0
 40
5.58
100
AcDbArc
 50
2.2199602278151826E-06
 51
180.00001289097281
  0
LINE
  5
52
330
1F
100
AcDbEntity
  8
0
 62
7
100
AcDbLine
 10
167.09165878248859
 20
1393.4307037127094
 30
0
 11
167.0916587824895
 21
1391.4307046924407
 31
0
  0
ARC
  5
53
330
1F
100
AcDbEntity
  8
0
 62
7
100
AcDbCircle
 10
172.67165878248989
 20
1391.4307206914557
 30
0
 40
5.58000000002312
100
AcDbArc
 50
180.00016427885924
 51
359.99983067014875
  0
LINE
  5
54
330
1F
100
AcDbEntity
  8
0
 62
7
100
AcDbLine
 10
178.2516587824889
 20
1391.4307042005278
 30
0
 11
178.2516587824889
 21
1393.4307051843537
 31
0
  0
LINE
  5
55
330
1F
100
AcDbEntity
  8
0
 62
7
100
AcDbLine
 10
347.22161626698335
 20
1313.608359034409
 30
0
 11
347.22161626709249
 21
1376.108359475191
 31
0
  0
ARC
  5
56
330
1F
100
AcDbEntity
  8
0
 62
7
100
AcDbCircle
 10
352.22161626682509
 20
1376.1083594754502
 30
0
 40
4.99999999973235
100
AcDbArc
 50
89.99999999683692
 51
180.00000000297027
  0
LINE
  5
57
330
1F
100
AcDbEntity
  8
0
 62
7
100
AcDbLine
 10
352.22161626710113
 20
1381.1083594751819
 30
0
 11
454.47161648377323
 21
1381.1083594750037
 31
0
  0
ARC
  5
58
330
1F
100
AcDbEntity
  8
0
 62
7
100
AcDbCircle
 10
454.47161626709249
 20
1376.1083594750037
 30
0
 40
5
100
AcDbArc
 50
359.99999999990621
 51
89.999997517021555
  0
LINE
  5
59
330
1F
100
AcDbEntity
  8
0
 62
7
100
AcDbLine
 10
459.47161626709249
 20
1376.1083594749955
 30
0
 11
459.47161626707839
 21
1367.3333352716675
 31
0
  0
ARC
  5
5A
330
1F
100
AcDbEntity
  8
0
 62
7
100
AcDbCircle
 10
464.47161626707839
 20
1367.3333350609239
 30
0
 40
5
100
AcDbArc
 50
179.99999758505663
 51
269.99999999989581
  0
LINE
  5
5B
330
1F
100
AcDbEntity
  8
0
 62
7
100
AcDbLine
 10
464.47161626706929
 20
1362.3333350609239
 30
0
 11
499.47161626339948
 21
1362.333335060863
 31
0
  0
ARC
  5
5C
330
1F
100
AcDbEntity
  8
0
 62
7
100
AcDbCircle
 10
499.471616267077
 20
1367.333335060863
 30
0
 40
5.00000000000002
100
AcDbArc
 50
269.99999995785845
 51
359.99999999990621
  0
LINE
  5
5D
330
1F
100
AcDbEntity
  8
0
 62
7
100
AcDbLine
 10
504.471616267077
 20
1367.3333350608548
 30
0
 11
504.47161626709249
 21
1376.1083594749164
 31
0
  0
ARC
  5
5E
330
1F
100
AcDbEntity
  8
0
 62
7
100
AcDbCircle
 10
509.47161626696652
 20
1376.1083594750337
 30
0
 40
4.99999999987383
100
AcDbArc
 50
89.999999998447109
 51
180.00000000134443
  0
LINE
  5
5F
330
1F
100
AcDbEntity
  8
0
 62
7
100
AcDbLine
 10
509.47161626710204
 20
1381.1083594749082
 30
0
 11
548.22158574585637
 21
1381.10835947484
 31
0
  0
ARC
  5
60
330
1F
100
AcDbEntity
  8
0
 62
7
100
AcDbCircle
 10
548.22158574989589
 20
1386.1083594744753
 30
0
 40
4.99999999963572
100
AcDbArc
 50
269.99999995371053
 51
359.9999949531055
  0
LINE
  5
61
330
1F
100
AcDbEntity
  8
0
 62
7
100
AcDbLine
 10
553.2215857495321
 20
1386.1083590340506
 30
0
 11
553.22158574966443
 21
1462.1083588210452
 31
0
  0
ARC
  5
62
330
1F
100
AcDbEntity
  8
0
 62
7
100
AcDbCircle
 10
548.22158574966443
 20
1462.10835947484
 30
0
 40
5
100
AcDbArc
 50
359.99999250806331
 51
89.999999999895778
  0
LINE
  5
63
330
1F
100
AcDbEntity
  8
0
 62
7
100
AcDbLine
 10
548.22158574967352
 20
1467.10835947484
 30
0
 11
327.22161626725165
 21
1467.1083594752256
 31
0
  0
ARC
  5
64
330
1F
100
AcDbEntity
  8
0
 62
7
100
AcDbCircle
 10
327.22161626709476
 20
1462.1083594753738
 30
0
 40
4.99999999985213
100
AcDbArc
 50
89.9999999982022
 51
180.00000000159457
  0
LINE
  5
65
330
1F
100
AcDbEntity
  8
0
 62
7
100
AcDbLine
 10
322.22161626724255
 20
1462.1083594752347
 30
0
 11
322.22161626698335
 21
1313.6083596859692
 31
0
  0
ARC
  5
66
330
1F
100
AcDbEntity
  8
0
 62
7
100
AcDbCircle
 10
327.22161626698335
 20
1313.6083594752256
 30
0
 40
5
100
AcDbArc
 50
179.99999758505663
 51
269.99999758506181
  0
LINE
  5
67
330
1F
100
AcDbEntity
  8
0
 62
7
100
AcDbLine
 10
327.22161605624024
 20
1308.6083594752256
 30
0
 11
342.22161626697471
 21
1308.6083594751992
 31
0
  0
ARC
  5
68
330
1F
100
AcDbEntity
  8
0
 62
7
100
AcDbCircle
 10
342.22161626698335
 20
1313.6083594751992
 30
0
 40
5.00000000000002
100
AcDbArc
 50
269.999999999901
 51
359.99999494891586
  0
CIRCLE
  5
69
330
1F
100
AcDbEntity
  8
0
 62
7
100
AcDbCircle
 10
538.22158574953528
 20
1388.1083594748573
 30
0
 40
3.58
  0
CIRCLE
  5
6A
330
1F
100
AcDbEntity
  8
0
 62
7
100
AcDbCircle
 10
543.87161016367509
 20
1431.908362526606
 30
0
 40
3.58
  0
CIRCLE
  5
6B
330
1F
100
AcDbEntity
  8
0
 62
7
100
AcDbCircle
 10
329.2216162671134
 20
1388.108359475222
 30
0
 40
3.58
  0
CIRCLE
  5
6C
330
1F
100
AcDbEntity
  8
0
 62
7
100
AcDbCircle
 10
331.47161626699653
 20
1321.1083594752183
 30
0
 40
3.58
  0
LINE
  5
6D
330
1F
100
AcDbEntity
  8
0
 62
7
100
AcDbLine
 10
372.72161646742052
 20
1450.0283747339365
 30
0
 11
374.72161606702366
 21
1450.0283747339329
 31
0
  0
ARC
  5
6E
330
1F
100
AcDbEntity
  8
0
 62
7
100
AcDbCircle
 10
374.72160849550664
 20
1454.6083747339328
 30
0
 40
4.58000000000607
100
AcDbArc
 50
270.00009471964404
 51
89.999900271194
  0
LINE
  5
6F
330
1F
100
AcDbEntity
  8
0
 62
7
100
AcDbLine
 10
374.72161646743643
 20
1459.1883747339318
 30
0
 11
372.72161606703958
 21
1459.1883747339355
 31
0
  0
ARC
  5
70
330
1F
100
AcDbEntity
  8
0
 62
7
100
AcDbCircle
 10
372.72160212710378
 20
1454.6083747339355
 30
0
 40
4.57999999997765
100
AcDbArc
 50
89.999825611465525
 51
270.00017939729821
  0
LINE
  5
71
330
1F
100
AcDbEntity
  8
0
 62
7
100
AcDbLine
 10
472.72161646742052
 20
1450.0283747337619
 30
0
 11
474.72161606702366
 21
1450.0283747337583
 31
0
  0
ARC
  5
72
330
1F
100
AcDbEntity
  8
0
 62
7
100
AcDbCircle
 10
474.72159525433153
 20
1454.6083747337582
 30
0
 40
4.58000000004768
100
AcDbArc
 50
270.00026036668538
 51
89.99973462415258
  0
LINE
  5
73
330
1F
100
AcDbEntity
  8
0
 62
7
100
AcDbLine
 10
474.72161646743643
 20
1459.1883747337572
 30
0
 11
472.72161606703958
 21
1459.1883747337608
 31
0
  0
ARC
  5
74
330
1F
100
AcDbEntity
  8
0
 62
7
100
AcDbCircle
 10
472.7215930864636
 20
1454.6083747337609
 30
0
 40
4.57999999994081
100
AcDbArc
 50
89.999712513097322
 51
270.00029249566643
  0
LINE
  5
75
330
1F
100
AcDbEntity
  8
0
 62
7
100
AcDbLine
 10
532.72158594984239
 20
1450.0283747336573
 30
0
 11
534.72158554944554
 21
1450.0283747336537
 31
0
  0
ARC
  5
76
330
1F
100
AcDbEntity
  8
0
 62
7
100
AcDbCircle
 10
534.72159773759677
 20
1454.6083747336527
 30
0
 40
4.57999999998379
100
AcDbArc
 50
269.99984752628262
 51
90.0001474645497
  0
LINE
  5
77
330
1F
100
AcDbEntity
  8
0
 62
7
100
AcDbLine
 10
534.72158594985876
 20
1459.1883747336526
 30
0
 11
532.72158554946145
 21
1459.1883747336562
 31
0
  0
ARC
  5
78
330
1F
100
AcDbEntity
  8
0
 62
7
100
AcDbCircle
 10
532.72160478640853
 20
1454.6083747336572
 30
0
 40
4.58000000003904
100
AcDbArc
 50
90.000240654121953
 51
269.9997643546418
  0
ARC
  5
79
330
1F
100
AcDbEntity
  8
0
 62
7
100
AcDbCircle
 10
481.97161626711386
 20
1388.3333353366054
 30
0
 40
5.58
100
AcDbArc
 50
2.2198668403460067E-06
 51
180.00001289086072
  0
LINE
  5
7A
330
1F
100
AcDbEntity
  8
0
 62
7
100
AcDbLine
 10
476.39161626711393
 20
1388.3333340811726
 30
0
 11
476.3916162671112
 21
1386.333335060903
 31
0
  0
ARC
  5
7B
330
1F
100
AcDbEntity
  8
0
 62
7
100
AcDbCircle
 10
481.97161626711159
 20
1386.3333510599089
 30
0
 40
5.58000000002312
100
AcDbArc
 50
180.00016427876582
 51
359.99983067004604
  0
LINE
  5
7C
330
1F
100
AcDbEntity
  8
0
 62
7
100
AcDbLine
 10
487.5516162671106
 20
1386.3333345689709
 30
0
 11
487.55161626711379
 21
1388.3333355527968
 31
0
  0
LINE
  5
7D
330
1F
100
AcDbEntity
  8
0
 62
7
100
AcDbLine
 10
274.92162826698359
 20
1257.5057286657204
 30
0
 11
246.02161605995161
 21
1257.5057286657714
 31
0
  0
ARC
  5
7E
330
1F
100
AcDbEntity
  8
0
 62
7
100
AcDbCircle
 10
246.02161605990568
 20
1252.5057286658077
 30
0
 40
4.9999999999629
100
AcDbArc
 50
89.9999999994737
 51
180.00000000032307
  0
LINE
  5
7F
330
1F
100
AcDbEntity
  8
0
 62
7
100
AcDbLine
 10
241.02161605994252
 20
1252.5057286657795
 30
0
 11
241.0216160599166
 21
1237.5057284472234
 31
0
  0
ARC
  5
80
330
1F
100
AcDbEntity
  8
0
 62
7
100
AcDbCircle
 10
246.0216160599166
 20
1237.5057286657714
 30
0
 40
5
100
AcDbArc
 50
180.00000250437489
 51
269.999999999901
  0
LINE
  5
81
330
1F
100
AcDbEntity
  8
0
 62
7
100
AcDbLine
 10
246.02161605990796
 20
1232.5057286657714
 30
0
 11
300.92162826693993
 21
1232.505728665675
 31
0
  0
ARC
  5
82
330
1F
100
AcDbEntity
  8
0
 62
7
100
AcDbCircle
 10
300.92162826684716
 20
1237.5057286657768
 30
0
 40
5.00000000010149
100
AcDbArc
 50
270.00000000106309
 51
359.99999999872847
  0
LINE
  5
83
330
1F
100
AcDbEntity
  8
0
 62
7
100
AcDbLine
 10
305.92162826694857
 20
1237.5057286656659
 30
0
 11
305.92162826727372
 21
1424.255728661997
 31
0
  0
ARC
  5
84
330
1F
100
AcDbEntity
  8
0
 62
7
100
AcDbCircle
 10
310.92162826727372
 20
1424.2557286656577
 30
0
 40
5.00000000000002
100
AcDbArc
 50
90.000005050891332
 51
180.00000004194871
  0
LINE
  5
85
330
1F
100
AcDbEntity
  8
0
 62
7
100
AcDbLine
 10
310.9216278265003
 20
1429.2557286656577
 30
0
 11
311.22161606025111
 21
1429.2557286656568
 31
0
  0
ARC
  5
86
330
1F
100
AcDbEntity
  8
0
 62
7
100
AcDbCircle
 10
311.22161606022291
 20
1434.2557286656941
 30
0
 40
5.00000000003686
100
AcDbArc
 50
270.0000000003231
 51
359.99999999947892
  0
LINE
  5
87
330
1F
100
AcDbEntity
  8
0
 62
7
100
AcDbLine
 10
316.22161606025975
 20
1434.2557286656486
 30
0
 11
316.22161606028612
 21
1449.2557286656486
 31
0
  0
ARC
  5
88
330
1F
100
AcDbEntity
  8
0
 62
7
100
AcDbCircle
 10
311.22161606028612
 20
1449.2557286656568
 30
0
 40
5
100
AcDbArc
 50
359.99999999990621
 51
90.000007513333159
  0
LINE
  5
89
330
1F
100
AcDbEntity
  8
0
 62
7
100
AcDbLine
 10
311.22161540462412
 20
1454.2557286656568
 30
0
 11
285.92162826732692
 21
1454.2557286657013
 31
0
  0
ARC
  5
8A
330
1F
100
AcDbEntity
  8
0
 62
7
100
AcDbCircle
 10
285.92162826731828
 20
1449.2557286657013
 30
0
 40
5.00000000000002
100
AcDbArc
 50
89.999999999901
 51
180.00000004194871
  0
LINE
  5
8B
330
1F
100
AcDbEntity
  8
0
 62
7
100
AcDbLine
 10
280.92162826731828
 20
1449.2557286620406
 30
0
 11
280.92162826699223
 21
1262.5057286657095
 31
0
  0
ARC
  5
8C
330
1F
100
AcDbEntity
  8
0
 62
7
100
AcDbCircle
 10
275.92265311973733
 20
1262.4044988424241
 30
0
 40
4.9999999999994
100
AcDbArc
 50
258.45105459496011
 51
1.1600875893682283
  0
CIRCLE
  5
8D
330
1F
100
AcDbEntity
  8
0
 62
7
100
AcDbCircle
 10
298.92162826708136
 20
1314.2557286656786
 30
0
 40
3.58
  0
CIRCLE
  5
8E
330
1F
100
AcDbEntity
  8
0
 62
7
100
AcDbCircle
 10
250.27158554235166
 20
1245.0057286657632
 30
0
 40
3.58
  0
LINE
  5
8F
330
1F
100
AcDbEntity
  8
0
 62
7
100
AcDbLine
 10
309.3016160602765
 20
1443.2557284217503
 30
0
 11
309.30161606028014
 21
1445.2557289095705
 31
0
  0
ARC
  5
90
330
1F
100
AcDbEntity
  8
0
 62
7
100
AcDbCircle
 10
303.72161606028021
 20
1445.2557190417813
 30
0
 40
5.5800000000088
100
AcDbArc
 50
0.00010132306022655034
 51
179.99990368570198
  0
LINE
  5
91
330
1F
100
AcDbEntity
  8
0
 62
7
100
AcDbLine
 10
298.14161606027938
 20
1445.2557284217703
 30
0
 11
298.14161606027574
 21
1443.2557289095887
 31
0
  0
ARC
  5
92
330
1F
100
AcDbEntity
  8
0
 62
7
100
AcDbCircle
 10
303.72161606027657
 20
1443.25573892754
 30
0
 40
5.58000000000994
100
AcDbArc
 50
180.00010286493404
 51
359.99989212591151
  0
LINE
  5
93
330
1F
100
AcDbEntity
  8
0
 62
7
100
AcDbLine
 10
249.92162826698359
 20
1427.3057166657202
 30
0
 11
249.92162826698359
 21
1364.8057162249381
 31
0
  0
ARC
  5
94
330
1F
100
AcDbEntity
  8
0
 62
7
100
AcDbCircle
 10
244.92162826725098
 20
1364.8057162246707
 30
0
 40
4.99999999973235
100
AcDbArc
 50
269.99999999693591
 51
3.0640802247484396E-09
  0
LINE
  5
95
330
1F
100
AcDbEntity
  8
0
 62
7
100
AcDbLine
 10
244.92162826698359
 20
1359.8057162249381
 30
0
 11
142.67162805031148
 21
1359.8057162249381
 31
0
  0
ARC
  5
96
330
1F
100
AcDbEntity
  8
0
 62
7
100
AcDbCircle
 10
142.67162826698359
 20
1364.8057162249381
 30
0
 40
5
100
AcDbArc
 50
180
 51
269.99999751712056
  0
LINE
  5
97
330
1F
100
AcDbEntity
  8
0
 62
7
100
AcDbLine
 10
137.67162826698359
 20
1364.8057162249381
 30
0
 11
137.67162826698222
 21
1373.5807404282662
 31
0
  0
ARC
  5
98
330
1F
100
AcDbEntity
  8
0
 62
7
100
AcDbCircle
 10
132.67162826698222
 20
1373.5807406390006
 30
0
 40
5
100
AcDbArc
 50
359.99999758516083
 51
90
  0
LINE
  5
99
330
1F
100
AcDbEntity
  8
0
 62
7
100
AcDbLine
 10
132.67162826698222
 20
1378.5807406390006
 30
0
 11
97.671628270652491
 21
1378.5807406390006
 31
0
  0
ARC
  5
9A
330
1F
100
AcDbEntity
  8
0
 62
7
100
AcDbCircle
 10
97.671628266983589
 20
1373.5807406390006
 30
0
 40
5.00000000000002
100
AcDbArc
 50
89.999999957957485
 51
180
  0
LINE
  5
9B
330
1F
100
AcDbEntity
  8
0
 62
7
100
AcDbLine
 10
92.671628266983589
 20
1373.5807406390006
 30
0
 11
92.671628266983589
 21
1364.8057162249381
 31
0
  0
ARC
  5
9C
330
1F
100
AcDbEntity
  8
0
 62
7
100
AcDbCircle
 10
87.671628267109554
 20
1364.8057162248126
 30
0
 40
4.99999999987383
100
AcDbArc
 50
269.99999999854612
 51
1.4382417381065456E-09
  0
LINE
  5
9D
330
1F
100
AcDbEntity
  8
0
 62
7
100
AcDbLine
 10
87.67162826698268
 20
1359.8057162249381
 30
0
 11
48.921658788228342
 21
1359.8057162249381
 31
0
  0
ARC
  5
9E
330
1F
100
AcDbEntity
  8
0
 62
7
100
AcDbCircle
 10
48.921658784197462
 20
1354.8057162253028
 30
0
 40
4.99999999963572
100
AcDbArc
 50
89.999999953809521
 51
179.99999495319932
  0
LINE
  5
9F
330
1F
100
AcDbEntity
  8
0
 62
7
100
AcDbLine
 10
43.921658784561714
 20
1354.8057166657193
 30
0
 11
43.921658784561259
 21
1278.8057168787248
 31
0
  0
ARC
  5
A0
330
1F
100
AcDbEntity
  8
0
 62
7
100
AcDbCircle
 10
48.921658784561259
 20
1278.8057162249381
 30
0
 40
5
100
AcDbArc
 50
179.99999250815711
 51
270
  0
LINE
  5
A1
330
1F
100
AcDbEntity
  8
0
 62
7
100
AcDbLine
 10
48.921658784561259
 20
1273.8057162249381
 30
0
 11
269.92162826698359
 21
1273.8057162249381
 31
0
  0
ARC
  5
A2
330
1F
100
AcDbEntity
  8
0
 62
7
100
AcDbCircle
 10
269.92162826713138
 20
1278.8057162247908
 30
0
 40
4.99999999985213
100
AcDbArc
 50
269.99999999830641
 51
1.6883707360454894E-09
  0
LINE
  5
A3
330
1F
100
AcDbEntity
  8
0
 62
7
100
AcDbLine
 10
274.92162826698359
 20
1278.8057162249381
 30
0
 11
274.92162826698359
 21
1427.3057160142037
 31
0
  0
ARC
  5
A4
330
1F
100
AcDbEntity
  8
0
 62
7
100
AcDbCircle
 10
269.92162826698359
 20
1427.3057162249381
 30
0
 40
5
100
AcDbArc
 50
359.99999758516083
 51
89.999997585160855
  0
LINE
  5
A5
330
1F
100
AcDbEntity
  8
0
 62
7
100
AcDbLine
 10
269.92162847771806
 20
1432.3057162249381
 30
0
 11
254.92162826698359
 21
1432.3057162249381
 31
0
  0
ARC
  5
A6
330
1F
100
AcDbEntity
  8
0
 62
7
100
AcDbCircle
 10
254.92162826698359
 20
1427.3057162249381
 30
0
 40
5.00000000000002
100
AcDbArc
 50
90
 51
179.99999494900965
  0
CIRCLE
  5
A7
330
1F
100
AcDbEntity
  8
0
 62
7
100
AcDbCircle
 10
58.921658784561714
 20
1352.8057162249381
 30
0
 40
3.58
  0
CIRCLE
  5
A8
330
1F
100
AcDbEntity
  8
0
 62
7
100
AcDbCircle
 10
53.271634370498305
 20
1309.0057131731803
 30
0
 40
3.58
  0
CIRCLE
  5
A9
330
1F
100
AcDbEntity
  8
0
 62
7
100
AcDbCircle
 10
267.92162826698359
 20
1352.8057162249381
 30
0
 40
3.58
  0
CIRCLE
  5
AA
330
1F
100
AcDbEntity
  8
0
 62
7
100
AcDbCircle
 10
265.67162826698359
 20
1419.8057162249381
 30
0
 40
3.58
  0
LINE
  5
AB
330
1F
100
AcDbEntity
  8
0
 62
7
100
AcDbLine
 10
224.42162806678425
 20
1290.885700966149
 30
0
 11
222.42162846718156
 21
1290.885700966149
 31
0
  0
ARC
  5
AC
330
1F
100
AcDbEntity
  8
0
 62
7
100
AcDbCircle
 10
222.42163603870631
 20
1286.3057009661482
 30
0
 40
4.58000000000607
100
AcDbArc
 50
90.00009471974073
 51
269.9999002712907
  0
LINE
  5
AD
330
1F
100
AcDbEntity
  8
0
 62
7
100
AcDbLine
 10
222.42162806678425
 20
1281.7257009661491
 30
0
 11
224.42162846718156
 21
1281.7257009661491
 31
0
  0
ARC
  5
AE
330
1F
100
AcDbEntity
  8
0
 62
7
100
AcDbCircle
 10
224.42164240710918
 20
1286.3057009661491
 30
0
 40
4.57999999997765
100
AcDbArc
 50
269.99982561156793
 51
90.000179397400657
  0
LINE
  5
AF
330
1F
100
AcDbEntity
  8
0
 62
7
100
AcDbLine
 10
124.42162806678425
 20
1290.885700966149
 30
0
 11
122.42162846718156
 21
1290.885700966149
 31
0
  0
ARC
  5
B0
330
1F
100
AcDbEntity
  8
0
 62
7
100
AcDbCircle
 10
122.42164927988142
 20
1286.3057009661482
 30
0
 40
4.58000000004768
100
AcDbArc
 50
90.000260366782129
 51
269.99973462424924
  0
LINE
  5
B1
330
1F
100
AcDbEntity
  8
0
 62
7
100
AcDbLine
 10
122.42162806678425
 20
1281.7257009661491
 30
0
 11
124.42162846718156
 21
1281.7257009661491
 31
0
  0
ARC
  5
B2
330
1F
100
AcDbEntity
  8
0
 62
7
100
AcDbCircle
 10
124.42165144774935
 20
1286.3057009661491
 30
0
 40
4.57999999994081
100
AcDbArc
 50
269.99971251319971
 51
90.000292495768861
  0
LINE
  5
B3
330
1F
100
AcDbEntity
  8
0
 62
7
100
AcDbLine
 10
64.421658584362376
 20
1290.885700966149
 30
0
 11
62.421658984759688
 21
1290.885700966149
 31
0
  0
ARC
  5
B4
330
1F
100
AcDbEntity
  8
0
 62
7
100
AcDbCircle
 10
62.421646796616642
 20
1286.3057009661491
 30
0
 40
4.57999999998379
100
AcDbArc
 50
89.999847526385025
 51
270.00014746464643
  0
LINE
  5
B5
330
1F
100
AcDbEntity
  8
0
 62
7
100
AcDbLine
 10
62.421658584362376
 20
1281.7257009661491
 30
0
 11
64.421658984759688
 21
1281.7257009661491
 31
0
  0
ARC
  5
B6
330
1F
100
AcDbEntity
  8
0
 62
7
100
AcDbCircle
 10
64.42163974780442
 20
1286.3057009661482
 30
0
 40
4.58000000003904
100
AcDbArc
 50
270.00024065422434
 51
89.999764354744229
  0
ARC
  5
B7
330
1F
100
AcDbEntity
  8
0
 62
7
100
AcDbCircle
 10
115.17162826698359
 20
1352.5807403632882
 30
0
 40
5.58
100
AcDbArc
 50
180.00000221996021
 51
1.2890972801340184E-05
  0
LINE
  5
B8
330
1F
100
AcDbEntity
  8
0
 62
7
100
AcDbLine
 10
120.75162826698352
 20
1352.580741618732
 30
0
 11
120.75162826698261
 21
1354.5807406390006
 31
0
  0
ARC
  5
B9
330
1F
100
AcDbEntity
  8
0
 62
7
100
AcDbCircle
 10
115.17162826698268
 20
1354.5807246399847
 30
0
 40
5.58000000002312
100
AcDbArc
 50
0.00016427886857479235
 51
179.9998306701394
  0
LINE
  5
BA
330
1F
100
AcDbEntity
  8
0
 62
7
100
AcDbLine
 10
109.59162826698366
 20
1354.5807411309136
 30
0
 11
109.59162826698366
 21
1352.5807401470877
 31
0
  0
LINE
  5
BB
330
1F
100
AcDbEntity
  8
0
 62
7
100
AcDbLine
 10
559.99578563883188
 20
1422.7614420344091
 30
0
 11
559.558235427096
 21
1360.2629732138851
 31
0
  0
ARC
  5
BC
330
1F
100
AcDbEntity
  8
0
 62
7
100
AcDbCircle
 10
554.55835795698158
 20
1360.2979772303072
 30
0
 40
4.99999999973235
100
AcDbArc
 50
269.59888023583204
 51
359.59888024197079
  0
LINE
  5
BD
330
1F
100
AcDbEntity
  8
0
 62
7
100
AcDbLine
 10
554.52335394002375
 20
1355.2980997601965
 30
0
 11
452.27585945408237
 21
1356.0139319030652
 31
0
  0
ARC
  5
BE
330
1F
100
AcDbEntity
  8
0
 62
7
100
AcDbCircle
 10
452.31086368744081
 20
1361.0138093719281
 30
0
 40
5
100
AcDbArc
 50
179.59888023889684
 51
269.59887775602431
  0
LINE
  5
BF
330
1F
100
AcDbEntity
  8
0
 62
7
100
AcDbLine
 10
447.31098621706087
 20
1361.0488133886204
 30
0
 11
447.37241843579704
 21
1369.8236225518715
 31
0
  0
ARC
  5
C0
330
1F
100
AcDbEntity
  8
0
 62
7
100
AcDbCircle
 10
442.3725409668923
 20
1369.8586267792937
 30
0
 40
5
100
AcDbArc
 50
359.59887782405059
 51
89.598880238902041
  0
LINE
  5
C1
330
1F
100
AcDbEntity
  8
0
 62
7
100
AcDbLine
 10
442.4075449835841
 20
1374.8585042496736
 30
0
 11
407.4084026945925
 21
1375.1035323664921
 31
0
  0
ARC
  5
C2
330
1F
100
AcDbEntity
  8
0
 62
7
100
AcDbCircle
 10
407.37339867423179
 20
1370.1036548961376
 30
0
 40
5.00000000000002
100
AcDbArc
 50
89.5988801968585
 51
179.5988802389073
  0
LINE
  5
C3
330
1F
100
AcDbEntity
  8
0
 62
7
100
AcDbLine
 10
402.3735212038514
 20
1370.138658912829
 30
0
 11
402.31208898363911
 21
1361.3638495388479
 31
0
  0
ARC
  5
C4
330
1F
100
AcDbEntity
  8
0
 62
7
100
AcDbCircle
 10
397.31221151338423
 20
1361.3988535554129
 30
0
 40
4.99999999987383
100
AcDbArc
 50
269.59888023744327
 51
359.59888024034586
  0
LINE
  5
C5
330
1F
100
AcDbEntity
  8
0
 62
7
100
AcDbLine
 10
397.277207496566
 20
1356.3989760851593
 30
0
 11
358.52818762161769
 21
1356.6702570008495
 31
0
  0
ARC
  5
C6
330
1F
100
AcDbEntity
  8
0
 62
7
100
AcDbCircle
 10
358.49318360089728
 20
1351.6703795308615
 30
0
 40
4.99999999963572
100
AcDbArc
 50
89.5988801927073
 51
179.5988751920892
  0
LINE
  5
C7
330
1F
100
AcDbEntity
  8
0
 62
7
100
AcDbLine
 10
353.49330613396432
 20
1351.7053839879575
 30
0
 11
352.96124508173716
 21
1275.7072466511784
 31
0
  0
ARC
  5
C8
330
1F
100
AcDbEntity
  8
0
 62
7
100
AcDbCircle
 10
357.96112254754053
 20
1275.6722419807159
 30
0
 40
5
100
AcDbArc
 50
179.59887274705795
 51
269.59888023889681
  0
LINE
  5
C9
330
1F
100
AcDbEntity
  8
0
 62
7
100
AcDbLine
 10
357.92611853084827
 20
1270.6723645103359
 30
0
 11
578.920672204823
 21
1269.125187186198
 31
0
  0
ARC
  5
CA
330
1F
100
AcDbEntity
  8
0
 62
7
100
AcDbCircle
 10
578.95567622166163
 20
1274.1250646564288
 30
0
 40
4.99999999985213
100
AcDbArc
 50
269.59888023720697
 51
359.59888024059427
  0
LINE
  5
CB
330
1F
100
AcDbEntity
  8
0
 62
7
100
AcDbLine
 10
583.95555369189515
 20
1274.0900606398857
 30
0
 11
584.99517298617138
 21
1422.5864212994486
 31
0
  0
ARC
  5
CC
330
1F
100
AcDbEntity
  8
0
 62
7
100
AcDbCircle
 10
579.99529551726664
 20
1422.6214255268699
 30
0
 40
5
100
AcDbArc
 50
359.59887782406105
 51
89.598877824061063
  0
LINE
  5
CD
330
1F
100
AcDbEntity
  8
0
 62
7
100
AcDbLine
 10
580.03029974468791
 20
1427.6213029957746
 30
0
 11
565.03066712281816
 21
1427.7263150473257
 31
0
  0
ARC
  5
CE
330
1F
100
AcDbEntity
  8
0
 62
7
100
AcDbCircle
 10
564.9956631061259
 20
1422.7264375769457
 30
0
 40
5.00000000000002
100
AcDbArc
 50
89.598880238896825
 51
179.59887518790777
  0
CIRCLE
  5
CF
330
1F
100
AcDbEntity
  8
0
 62
7
100
AcDbCircle
 10
368.47893693534206
 20
1349.6004205089587
 30
0
 40
3.58
  0
CIRCLE
  5
D0
330
1F
100
AcDbEntity
  8
0
 62
7
100
AcDbCircle
 10
362.52241577276118
 20
1305.841045526525
 30
0
 40
3.58
  0
CIRCLE
  5
D1
330
1F
100
AcDbEntity
  8
0
 62
7
100
AcDbCircle
 10
577.47378468040415
 20
1348.1372528248814
 30
0
 40
3.58
  0
CIRCLE
  5
D2
330
1F
100
AcDbEntity
  8
0
 62
7
100
AcDbCircle
 10
575.69289364240558
 20
1415.1513627354873
 30
0
 40
3.58
  0
LINE
  5
D3
330
1F
100
AcDbEntity
  8
0
 62
7
100
AcDbLine
 10
533.541360638365
 20
1286.5232899198993
 30
0
 11
531.5414100506
 21
1286.5372915237724
 31
0
  0
ARC
  5
D4
330
1F
100
AcDbEntity
  8
0
 62
7
100
AcDbCircle
 10
531.5093539426498
 20
1281.9574037078976
 30
0
 40
4.58000000000607
100
AcDbArc
 50
89.598974958646238
 51
269.59878051018688
  0
LINE
  5
D5
330
1F
100
AcDbEntity
  8
0
 62
7
100
AcDbLine
 10
531.477282291633
 20
1277.3775160008402
 30
0
 11
533.4772336801725
 21
1277.3635143913609
 31
0
  0
ARC
  5
D6
330
1F
100
AcDbEntity
  8
0
 62
7
100
AcDbCircle
 10
533.50931129904848
 20
1281.943402056638
 30
0
 40
4.57999999997765
100
AcDbArc
 50
269.59870585046639
 51
89.599059636299089
  0
LINE
  5
D7
330
1F
100
AcDbEntity
  8
0
 62
7
100
AcDbLine
 10
433.54381123076109
 20
1287.2233702537389
 30
0
 11
431.54386064299615
 21
1287.2373718576121
 31
0
  0
ARC
  5
D8
330
1F
100
AcDbEntity
  8
0
 62
7
100
AcDbCircle
 10
431.51181777589636
 20
1282.6574839490388
 30
0
 40
4.58000000004768
100
AcDbArc
 50
89.599140605685079
 51
269.59861486315378
  0
LINE
  5
D9
330
1F
100
AcDbEntity
  8
0
 62
7
100
AcDbLine
 10
431.47973288402954
 20
1278.0775963346798
 30
0
 11
433.47968427256865
 21
1278.0635947252006
 31
0
  0
ARC
  5
DA
330
1F
100
AcDbEntity
  8
0
 62
7
100
AcDbCircle
 10
433.51177093186334
 20
1282.6434823271859
 30
0
 40
4.57999999994081
100
AcDbArc
 50
269.59859275209709
 51
89.5991727346684
  0
LINE
  5
DB
330
1F
100
AcDbEntity
  8
0
 62
7
100
AcDbLine
 10
373.54531210302912
 20
1287.6434182403948
 30
0
 11
371.54536151526418
 21
1287.6574198442688
 31
0
  0
ARC
  5
DC
330
1F
100
AcDbEntity
  8
0
 62
7
100
AcDbCircle
 10
371.51328564813
 20
1283.0775321667281
 30
0
 40
4.57999999998379
100
AcDbArc
 50
89.598727765285759
 51
269.59902770354739
  0
LINE
  5
DD
330
1F
100
AcDbEntity
  8
0
 62
7
100
AcDbLine
 10
371.48123375629712
 20
1278.4976443213366
 30
0
 11
373.48118514483667
 21
1278.4836427118564
 31
0
  0
ARC
  5
DE
330
1F
100
AcDbEntity
  8
0
 62
7
100
AcDbCircle
 10
373.51322958764285
 20
1283.0635306093975
 30
0
 40
4.58000000003904
100
AcDbArc
 50
269.59912089312206
 51
89.598644593643471
  0
ARC
  5
DF
330
1F
100
AcDbEntity
  8
0
 62
7
100
AcDbCircle
 10
424.7259529485259
 20
1348.9816551864126
 30
0
 40
5.58
100
AcDbArc
 50
179.59888245885688
 51
359.59889312986945
  0
LINE
  5
E0
330
1F
100
AcDbEntity
  8
0
 62
7
100
AcDbLine
 10
430.30581621425927
 20
1348.942591959197
 30
0
 11
430.31981781407603
 21
1350.942541967642
 31
0
  0
ARC
  5
E1
330
1F
100
AcDbEntity
  8
0
 62
7
100
AcDbCircle
 10
424.73995444512593
 20
1350.9815904516465
 30
0
 40
5.58000000002312
100
AcDbArc
 50
359.59904451776765
 51
179.59871090904377
  0
LINE
  5
E2
330
1F
100
AcDbEntity
  8
0
 62
7
100
AcDbLine
 10
419.16009130363227
 20
1351.020671424799
 30
0
 11
419.14608969006804
 21
1349.0207194528459
 31
0
  0
LINE
  5
E3
330
1F
100
AcDbEntity
  8
0
 62
7
100
AcDbLine
 10
37.921658266983286
 20
1273.8057166657202
 30
0
 11
37.921658267033763
 21
1302.7057288727522
 31
0
  0
ARC
  5
E4
330
1F
100
AcDbEntity
  8
0
 62
7
100
AcDbCircle
 10
32.921658267071052
 20
1302.7057288727985
 30
0
 40
4.9999999999629
100
AcDbArc
 50
359.99999999946846
 51
90.0000000003283
  0
LINE
  5
E5
330
1F
100
AcDbEntity
  8
0
 62
7
100
AcDbLine
 10
32.9216582670424
 20
1307.7057288727613
 30
0
 11
17.921658048486734
 21
1307.7057288727876
 31
0
  0
ARC
  5
E6
330
1F
100
AcDbEntity
  8
0
 62
7
100
AcDbCircle
 10
17.921658267033763
 20
1302.7057288727876
 30
0
 40
5
100
AcDbArc
 50
90.000002504364488
 51
179.99999999990621
  0
LINE
  5
E7
330
1F
100
AcDbEntity
  8
0
 62
7
100
AcDbLine
 10
12.921658267033763
 20
1302.7057288727958
 30
0
 11
12.921658266938266
 21
1247.8057166657638
 31
0
  0
ARC
  5
E8
330
1F
100
AcDbEntity
  8
0
 62
7
100
AcDbCircle
 10
17.921658267039675
 20
1247.8057166658566
 30
0
 40
5.00000000010149
100
AcDbArc
 50
180.00000000106303
 51
269.99999999873376
  0
LINE
  5
E9
330
1F
100
AcDbEntity
  8
0
 62
7
100
AcDbLine
 10
17.921658266929171
 20
1242.8057166657557
 30
0
 11
204.67165826326027
 21
1242.80571666543
 31
0
  0
ARC
  5
EA
330
1F
100
AcDbEntity
  8
0
 62
7
100
AcDbCircle
 10
204.67165826692053
 20
1237.80571666543
 30
0
 40
5.00000000000002
100
AcDbArc
 50
5.0508965432713183E-06
 51
90.000000041943508
  0
LINE
  5
EB
330
1F
100
AcDbEntity
  8
0
 62
7
100
AcDbLine
 10
209.67165826692053
 20
1237.8057171062039
 30
0
 11
209.67165826692008
 21
1237.5057288724522
 31
0
  0
ARC
  5
EC
330
1F
100
AcDbEntity
  8
0
 62
7
100
AcDbCircle
 10
214.67165826695691
 20
1237.5057288724804
 30
0
 40
5.00000000003686
100
AcDbArc
 50
180.00000000032307
 51
269.99999999947892
  0
LINE
  5
ED
330
1F
100
AcDbEntity
  8
0
 62
7
100
AcDbLine
 10
214.67165826691144
 20
1232.505728872444
 30
0
 11
229.67165826691144
 21
1232.5057288724176
 31
0
  0
ARC
  5
EE
330
1F
100
AcDbEntity
  8
0
 62
7
100
AcDbCircle
 10
229.67165826692008
 20
1237.5057288724176
 30
0
 40
5
100
AcDbArc
 50
269.999999999901
 51
7.5133331515129447E-06
  0
LINE
  5
EF
330
1F
100
AcDbEntity
  8
0
 62
7
100
AcDbLine
 10
234.67165826692008
 20
1237.5057295280797
 30
0
 11
234.67165826696419
 21
1262.8057166653773
 31
0
  0
ARC
  5
F0
330
1F
100
AcDbEntity
  8
0
 62
7
100
AcDbCircle
 10
229.67165826696419
 20
1262.8057166653855
 30
0
 40
5.00000000000002
100
AcDbArc
 50
359.99999999990621
 51
90.000000041943508
  0
LINE
  5
F1
330
1F
100
AcDbEntity
  8
0
 62
7
100
AcDbLine
 10
229.67165826330393
 20
1267.8057166653855
 30
0
 11
42.921658266972827
 21
1267.805716665712
 31
0
  0
ARC
  5
F2
330
1F
100
AcDbEntity
  8
0
 62
7
100
AcDbCircle
 10
42.820428443687433
 20
1272.8046918129669
 30
0
 40
4.9999999999994
100
AcDbArc
 50
168.45105459496625
 51
271.16008758936823
  0
CIRCLE
  5
F3
330
1F
100
AcDbEntity
  8
0
 62
7
100
AcDbCircle
 10
94.671658266941449
 20
1249.805716665622
 30
0
 40
3.58
  0
CIRCLE
  5
F4
330
1F
100
AcDbEntity
  8
0
 62
7
100
AcDbCircle
 10
25.421658267026487
 20
1298.4557593903521
 30
0
 40
3.58
  0
LINE
  5
F5
330
1F
100
AcDbEntity
  8
0
 62
7
100
AcDbLine
 10
223.67165802301361
 20
1239.4257288724268
 30
0
 11
225.67165851083337
 21
1239.4257288724232
 31
0
  0
ARC
  5
F6
330
1F
100
AcDbEntity
  8
0
 62
7
100
AcDbCircle
 10
225.67164864304414
 20
1245.0057288724231
 30
0
 40
5.5800000000088
100
AcDbArc
 50
270.00010132306028
 51
89.999903685706656
  0
LINE
  5
F7
330
1F
100
AcDbEntity
  8
0
 62
7
100
AcDbLine
 10
225.67165802303271
 20
1250.5857288724249
 30
0
 11
223.671658510852
 21
1250.5857288724285
 31
0
  0
ARC
  5
F8
330
1F
100
AcDbEntity
  8
0
 62
7
100
AcDbCircle
 10
223.67166852880337
 20
1245.0057288724267
 30
0
 40
5.58000000000994
100
AcDbArc
 50
90.00010286493405
 51
269.99989212591151
  0
LINE
  5
F9
330
1F
100
AcDbEntity
  8
0
 62
7
100
AcDbLine
 10
347.22934810529932
 20
1111.2433434105017
 30
0
 11
347.66689820086413
 21
1173.7418122318388
 31
0
  0
ARC
  5
FA
330
1F
100
AcDbEntity
  8
0
 62
7
100
AcDbCircle
 10
352.66677567104352
 20
1173.70680822471
 30
0
 40
4.99999999973235
100
AcDbArc
 50
89.598880342332265
 51
179.59888034846583
  0
LINE
  5
FB
330
1F
100
AcDbEntity
  8
0
 62
7
100
AcDbLine
 10
352.70177967870768
 20
1178.7066856948852
 30
0
 11
454.94927416598011
 21
1177.9908537420727
 31
0
  0
ARC
  5
FC
330
1F
100
AcDbEntity
  8
0
 62
7
100
AcDbCircle
 10
454.91426994191488
 20
1172.9909762731443
 30
0
 40
5
100
AcDbArc
 50
359.59888034540228
 51
89.598877862519345
  0
LINE
  5
FD
330
1F
100
AcDbEntity
  8
0
 62
7
100
AcDbLine
 10
459.91414741236031
 20
1172.9559722657461
 30
0
 11
459.85271520993456
 21
1164.1811631023804
 31
0
  0
ARC
  5
FE
330
1F
100
AcDbEntity
  8
0
 62
7
100
AcDbCircle
 10
464.85259267890433
 20
1164.1461588842524
 30
0
 40
5
100
AcDbArc
 50
179.59887793055609
 51
269.59888034539711
  0
LINE
  5
FF
330
1F
100
AcDbEntity
  8
0
 62
7
100
AcDbLine
 10
464.81758867150575
 20
1159.1462814138069
 30
0
 11
499.816730960953
 21
1158.9012533620446
 31
0
  0
ARC
  5
100
330
1F
100
AcDbEntity
  8
0
 62
7
100
AcDbCircle
 10
499.85173497202004
 20
1163.9011308324637
 30
0
 40
5.00000000000002
100
AcDbArc
 50
269.59888030335873
 51
359.59888034540228
  0
LINE
  5
101
330
1F
100
AcDbEntity
  8
0
 62
7
100
AcDbLine
 10
504.85161244246547
 20
1163.8661268250655
 30
0
 11
504.91304464636733
 21
1172.6409361991612
 31
0
  0
ARC
  5
102
330
1F
100
AcDbEntity
  8
0
 62
7
100
AcDbCircle
 10
509.9129221166877
 20
1172.6059321918895
 30
0
 40
4.99999999987383
100
AcDbArc
 50
89.59888034394875
 51
179.5988803468409
  0
LINE
  5
103
330
1F
100
AcDbEntity
  8
0
 62
7
100
AcDbLine
 10
509.94792612421179
 20
1177.6058096622085
 30
0
 11
548.69694599966488
 21
1177.334528818544
 31
0
  0
ARC
  5
104
330
1F
100
AcDbEntity
  8
0
 62
7
100
AcDbCircle
 10
548.73195001109161
 20
1182.3344062885965
 30
0
 40
4.99999999963572
100
AcDbArc
 50
269.59888029920745
 51
359.59887529859463
  0
LINE
  5
105
330
1F
100
AcDbEntity
  8
0
 62
7
100
AcDbLine
 10
553.7318274780896
 20
1182.2994018407946
 30
0
 11
554.26388838905268
 21
1258.2975391785633
 31
0
  0
ARC
  5
106
330
1F
100
AcDbEntity
  8
0
 62
7
100
AcDbCircle
 10
549.26401092318474
 20
1258.3325438397317
 30
0
 40
5
100
AcDbArc
 50
359.59887285356336
 51
89.59888034540225
  0
LINE
  5
107
330
1F
100
AcDbEntity
  8
0
 62
7
100
AcDbLine
 10
549.29901493058287
 20
1263.3324213101762
 30
0
 11
328.30446125373282
 21
1264.8795982235354
 31
0
  0
ARC
  5
108
330
1F
100
AcDbEntity
  8
0
 62
7
100
AcDbCircle
 10
328.26945724618736
 20
1259.8797207532391
 30
0
 40
4.99999999985213
100
AcDbArc
 50
89.598880343702021
 51
179.59888034709968
  0
LINE
  5
109
330
1F
100
AcDbEntity
  8
0
 62
7
100
AcDbLine
 10
323.26957977588927
 20
1259.9147247604881
 30
0
 11
322.22996075763422
 21
1111.4183640989934
 31
0
  0
ARC
  5
10A
330
1F
100
AcDbEntity
  8
0
 62
7
100
AcDbCircle
 10
327.229838226604
 20
1111.3833598808662
 30
0
 40
5
100
AcDbArc
 50
179.59887793056649
 51
269.59887793056134
  0
LINE
  5
10B
330
1F
100
AcDbEntity
  8
0
 62
7
100
AcDbLine
 10
327.19483400847639
 20
1106.383482411896
 30
0
 11
342.19446663054123
 21
1106.2784703882255
 31
0
  0
ARC
  5
10C
330
1F
100
AcDbEntity
  8
0
 62
7
100
AcDbCircle
 10
342.22947063793981
 20
1111.2783478586709
 30
0
 40
5.00000000000002
100
AcDbArc
 50
269.59888034539711
 51
359.59887529441323
  0
CIRCLE
  5
10D
330
1F
100
AcDbEntity
  8
0
 62
7
100
AcDbCircle
 10
538.74619667279876
 20
1184.4043652919383
 30
0
 40
3.58
  0
CIRCLE
  5
10E
330
1F
100
AcDbEntity
  8
0
 62
7
100
AcDbCircle
 10
544.7027177540408
 20
1228.1637402854442
 30
0
 40
3.58
  0
CIRCLE
  5
10F
330
1F
100
AcDbEntity
  8
0
 62
7
100
AcDbCircle
 10
329.75134892501728
 20
1185.8675325875413
 30
0
 40
3.58
  0
CIRCLE
  5
110
330
1F
100
AcDbEntity
  8
0
 62
7
100
AcDbCircle
 10
331.53224008757979
 20
1118.8534226802451
 30
0
 40
3.58
  0
LINE
  5
111
330
1F
100
AcDbEntity
  8
0
 62
7
100
AcDbLine
 10
373.68377285252973
 20
1247.4814955741842
 30
0
 11
375.68372344032059
 21
1247.4674939740282
 31
0
  0
ARC
  5
112
330
1F
100
AcDbEntity
  8
0
 62
7
100
AcDbCircle
 10
375.71577953975793
 20
1252.0473817899622
 30
0
 40
4.58000000000607
100
AcDbArc
 50
269.59897506514477
 51
89.598780616691229
  0
LINE
  5
113
330
1F
100
AcDbEntity
  8
0
 62
7
100
AcDbLine
 10
375.74785118226146
 20
1256.6272694970796
 30
0
 11
373.74789979369643
 21
1256.6412711028418
 31
0
  0
ARC
  5
114
330
1F
100
AcDbEntity
  8
0
 62
7
100
AcDbCircle
 10
373.71582218333333
 20
1252.0613834375047
 30
0
 40
4.57999999997765
100
AcDbArc
 50
89.59870595696502
 51
269.59905974279764
  0
LINE
  5
115
330
1F
100
AcDbEntity
  8
0
 62
7
100
AcDbLine
 10
473.68132226143462
 20
1246.7814154262171
 30
0
 11
475.68127284922593
 21
1246.7674138260611
 31
0
  0
ARC
  5
116
330
1F
100
AcDbEntity
  8
0
 62
7
100
AcDbCircle
 10
475.71331570781285
 20
1251.3473017346944
 30
0
 40
4.58000000004768
100
AcDbArc
 50
269.59914071218367
 51
89.598614969652317
  0
LINE
  5
117
330
1F
100
AcDbEntity
  8
0
 62
7
100
AcDbLine
 10
475.7454005911668
 20
1255.9271893491125
 30
0
 11
473.74544920260132
 21
1255.9411909548755
 31
0
  0
ARC
  5
118
330
1F
100
AcDbEntity
  8
0
 62
7
100
AcDbCircle
 10
473.7133625518195
 20
1251.3613033528302
 30
0
 40
4.57999999994081
100
AcDbArc
 50
89.598592858595723
 51
269.599172841167
  0
LINE
  5
119
330
1F
100
AcDbEntity
  8
0
 62
7
100
AcDbLine
 10
533.67982138994785
 20
1246.3613675510853
 30
0
 11
535.67977197773871
 21
1246.3473659509284
 31
0
  0
ARC
  5
11A
330
1F
100
AcDbEntity
  8
0
 62
7
100
AcDbCircle
 10
535.71184783636
 20
1250.9272536285291
 30
0
 40
4.57999999998379
100
AcDbArc
 50
269.59872787178432
 51
89.599027810051709
  0
LINE
  5
11B
330
1F
100
AcDbEntity
  8
0
 62
7
100
AcDbLine
 10
535.74389971967958
 20
1255.5071414739807
 30
0
 11
533.7439483311141
 21
1255.5211430797428
 31
0
  0
ARC
  5
11C
330
1F
100
AcDbEntity
  8
0
 62
7
100
AcDbCircle
 10
533.71190389682079
 20
1250.9412551821417
 30
0
 40
4.58000000003904
100
AcDbArc
 50
89.599120999620652
 51
269.5986447001477
  0
ARC
  5
11D
330
1F
100
AcDbEntity
  8
0
 62
7
100
AcDbCircle
 10
482.49918065846487
 20
1185.0231305099335
 30
0
 40
5.58
100
AcDbArc
 50
359.59888256536789
 51
179.59889323636179
  0
LINE
  5
11E
330
1F
100
AcDbEntity
  8
0
 62
7
100
AcDbLine
 10
476.91931739265874
 20
1185.0621937267781
 30
0
 11
476.90531579655953
 21
1183.0622437183067
 31
0
  0
ARC
  5
11F
330
1F
100
AcDbEntity
  8
0
 62
7
100
AcDbCircle
 10
482.48517916558239
 20
1183.0231952446741
 30
0
 40
5.58000000002312
100
AcDbArc
 50
179.59904462426934
 51
359.59871101553608
  0
LINE
  5
120
330
1F
100
AcDbEntity
  8
0
 62
7
100
AcDbLine
 10
488.06504230714836
 20
1182.9841142818925
 30
0
 11
488.07904391699549
 21
1184.9840662538729
 31
0
  0
LINE
  5
121
330
1F
100
AcDbEntity
  8
0
 62
7
100
AcDbLine
 10
291.612640412377
 20
1195.5057286657204
 30
0
 11
291.61264041232653
 21
1166.6057164586884
 31
0
  0
ARC
  5
122
330
1F
100
AcDbEntity
  8
0
 62
7
100
AcDbCircle
 10
296.61264041228924
 20
1166.605716458643
 30
0
 40
4.9999999999629
100
AcDbArc
 50
179.99999999947889
 51
270.00000000032827
  0
LINE
  5
123
330
1F
100
AcDbEntity
  8
0
 62
7
100
AcDbLine
 10
296.61264041231789
 20
1161.6057164586794
 30
0
 11
311.612640630874
 21
1161.6057164586539
 31
0
  0
ARC
  5
124
330
1F
100
AcDbEntity
  8
0
 62
7
100
AcDbCircle
 10
311.61264041232653
 20
1166.6057164586539
 30
0
 40
5
100
AcDbArc
 50
270.00000250436966
 51
359.99999999989581
  0
LINE
  5
125
330
1F
100
AcDbEntity
  8
0
 62
7
100
AcDbLine
 10
316.61264041232653
 20
1166.6057164586448
 30
0
 11
316.612640412422
 21
1221.5057286656768
 31
0
  0
ARC
  5
126
330
1F
100
AcDbEntity
  8
0
 62
7
100
AcDbCircle
 10
311.61264041232062
 20
1221.505728665584
 30
0
 40
5.00000000010149
100
AcDbArc
 50
1.063048241160844E-09
 51
89.999999998733713
  0
LINE
  5
127
330
1F
100
AcDbEntity
  8
0
 62
7
100
AcDbLine
 10
311.61264041243112
 20
1226.5057286656859
 30
0
 11
124.86264041610002
 21
1226.5057286660106
 31
0
  0
ARC
  5
128
330
1F
100
AcDbEntity
  8
0
 62
7
100
AcDbCircle
 10
124.86264041243976
 20
1231.5057286660106
 30
0
 40
5.00000000000002
100
AcDbArc
 50
180.00000505088613
 51
270.00000004194351
  0
LINE
  5
129
330
1F
100
AcDbEntity
  8
0
 62
7
100
AcDbLine
 10
119.86264041243976
 20
1231.5057282252376
 30
0
 11
119.86264041244021
 21
1231.8057164589884
 31
0
  0
ARC
  5
12A
330
1F
100
AcDbEntity
  8
0
 62
7
100
AcDbCircle
 10
114.86264041240338
 20
1231.8057164589602
 30
0
 40
5.00000000003686
100
AcDbArc
 50
3.2308328898442912E-10
 51
89.9999999994789
  0
LINE
  5
12B
330
1F
100
AcDbEntity
  8
0
 62
7
100
AcDbLine
 10
114.86264041244885
 20
1236.8057164589966
 30
0
 11
99.862640412448854
 21
1236.805716459023
 31
0
  0
ARC
  5
12C
330
1F
100
AcDbEntity
  8
0
 62
7
100
AcDbCircle
 10
99.862640412440214
 20
1231.805716459023
 30
0
 40
5
100
AcDbArc
 50
89.999999999901
 51
180.00000751333314
  0
LINE
  5
12D
330
1F
100
AcDbEntity
  8
0
 62
7
100
AcDbLine
 10
94.862640412440214
 20
1231.805715803361
 30
0
 11
94.8626404123961
 21
1206.5057286660642
 31
0
  0
ARC
  5
12E
330
1F
100
AcDbEntity
  8
0
 62
7
100
AcDbCircle
 10
99.8626404123961
 20
1206.5057286660551
 30
0
 40
5.00000000000002
100
AcDbArc
 50
179.99999999989578
 51
270.00000004194351
  0
LINE
  5
12F
330
1F
100
AcDbEntity
  8
0
 62
7
100
AcDbLine
 10
99.862640416056365
 20
1201.5057286660551
 30
0
 11
286.61264041238746
 21
1201.5057286657295
 31
0
  0
ARC
  5
130
330
1F
100
AcDbEntity
  8
0
 62
7
100
AcDbCircle
 10
286.71387023567286
 20
1196.5067535184746
 30
0
 40
4.9999999999994
100
AcDbArc
 50
348.451054594956
 51
91.160087589368231
  0
CIRCLE
  5
131
330
1F
100
AcDbEntity
  8
0
 62
7
100
AcDbCircle
 10
234.86264041241884
 20
1219.5057286658187
 30
0
 40
3.58
  0
CIRCLE
  5
132
330
1F
100
AcDbEntity
  8
0
 62
7
100
AcDbCircle
 10
304.1126404123338
 20
1170.8556859410885
 30
0
 40
3.58
  0
LINE
  5
133
330
1F
100
AcDbEntity
  8
0
 62
7
100
AcDbLine
 10
105.86264065634668
 20
1229.8857164590138
 30
0
 11
103.86264016852692
 21
1229.8857164590174
 31
0
  0
ARC
  5
134
330
1F
100
AcDbEntity
  8
0
 62
7
100
AcDbCircle
 10
103.86265003631615
 20
1224.3057164590175
 30
0
 40
5.5800000000088
100
AcDbArc
 50
90.000101323060221
 51
269.99990368570667
  0
LINE
  5
135
330
1F
100
AcDbEntity
  8
0
 62
7
100
AcDbLine
 10
103.86264065632759
 20
1218.7257164590167
 30
0
 11
105.86264016850828
 21
1218.725716459013
 31
0
  0
ARC
  5
136
330
1F
100
AcDbEntity
  8
0
 62
7
100
AcDbCircle
 10
105.86263015055692
 20
1224.3057164590139
 30
0
 40
5.58000000000994
100
AcDbArc
 50
270.00010286493404
 51
89.999892125911529
  0
LINE
  5
137
330
1F
100
AcDbEntity
  8
0
 62
7
100
AcDbLine
 10
44.988237448213113
 20
1200.8477142639761
 30
0
 11
73.848730330457329
 21
1202.3585604376597
 31
0
  0
ARC
  5
138
330
1F
100
AcDbEntity
  8
0
 62
7
100
AcDbCircle
 10
73.587338369333793
 20
1207.3517231870885
 30
0
 40
4.9999999999629
100
AcDbArc
 50
272.99669730347489
 51
2.996697304325056
  0
LINE
  5
139
330
1F
100
AcDbEntity
  8
0
 62
7
100
AcDbLine
 10
78.580501118759457
 20
1207.6131151482862
 30
0
 11
77.796325223846
 21
1222.5926036149369
 31
0
  0
ARC
  5
13A
330
1F
100
AcDbEntity
  8
0
 62
7
100
AcDbCircle
 10
72.8031624858072
 20
1222.3312114355169
 30
0
 40
5
100
AcDbArc
 50
2.9966998083708547
 51
92.996697303901215
  0
LINE
  5
13B
330
1F
100
AcDbEntity
  8
0
 62
7
100
AcDbLine
 10
72.541770524644562
 20
1227.3243741849813
 30
0
 11
17.716831345185255
 21
1224.4542898132524
 31
0
  0
ARC
  5
13C
330
1F
100
AcDbEntity
  8
0
 62
7
100
AcDbCircle
 10
17.978223306454311
 20
1219.4611270636926
 30
0
 40
5.00000000010149
100
AcDbArc
 50
92.9966973050617
 51
182.99669730273914
  0
LINE
  5
13D
330
1F
100
AcDbEntity
  8
0
 62
7
100
AcDbLine
 10
12.985060556883127
 20
1219.1997351026259
 30
0
 11
22.748050306113782
 21
1032.7051064137916
 31
0
  0
ARC
  5
13E
330
1F
100
AcDbEntity
  8
0
 62
7
100
AcDbCircle
 10
17.754887556840913
 20
1032.443714448965
 30
0
 40
5.00000000000002
100
AcDbArc
 50
272.996702354889
 51
2.9966973459436725
  0
LINE
  5
13F
330
1F
100
AcDbEntity
  8
0
 62
7
100
AcDbLine
 10
18.016279958182622
 20
1027.4505517225446
 30
0
 11
17.716701943374119
 21
1027.4348688199955
 31
0
  0
ARC
  5
140
330
1F
100
AcDbEntity
  8
0
 62
7
100
AcDbCircle
 10
17.978093904575417
 20
1022.4417060704956
 30
0
 40
5.00000000003686
100
AcDbArc
 50
92.996697304322211
 51
182.99669730347705
  0
LINE
  5
141
330
1F
100
AcDbEntity
  8
0
 62
7
100
AcDbLine
 10
12.98493115507199
 20
1022.1803141093679
 30
0
 11
13.769107038559923
 21
1007.200825860975
 31
0
  0
ARC
  5
142
330
1F
100
AcDbEntity
  8
0
 62
7
100
AcDbCircle
 10
18.762269788024241
 20
1007.4622178221372
 30
0
 40
5
100
AcDbArc
 50
182.99669730389598
 51
272.99670481733119
  0
LINE
  5
143
330
1F
100
AcDbEntity
  8
0
 62
7
100
AcDbLine
 10
19.02366240396077
 20
1002.4690551069499
 30
0
 11
44.289053071137914
 21
1003.7916977579908
 31
0
  0
ARC
  5
144
330
1F
100
AcDbEntity
  8
0
 62
7
100
AcDbCircle
 10
44.027661109974815
 20
1008.7848605074552
 30
0
 40
5.00000000000002
100
AcDbArc
 50
272.99669730390639
 51
2.9966973459436725
  0
LINE
  5
145
330
1F
100
AcDbEntity
  8
0
 62
7
100
AcDbLine
 10
49.020823859247685
 20
1009.0462524722817
 30
0
 11
39.257834110018393
 21
1195.5408811611162
 31
0
  0
ARC
  5
146
330
1F
100
AcDbEntity
  8
0
 62
7
100
AcDbCircle
 10
44.244681275764833
 20
1195.9033109411869
 30
0
 40
4.9999999999994
100
AcDbArc
 50
81.447751898961542
 51
184.156784893374
  0
CIRCLE
  5
147
330
1F
100
AcDbEntity
  8
0
 62
7
100
AcDbCircle
 10
23.987855009979739
 20
1142.9206356439738
 30
0
 40
3.58
  0
CIRCLE
  5
148
330
1F
100
AcDbEntity
  8
0
 62
7
100
AcDbCircle
 10
68.951092566353054
 20
1214.6192857397421
 30
0
 40
3.58
  0
LINE
  5
149
330
1F
100
AcDbEntity
  8
0
 62
7
100
AcDbLine
 10
20.365973917671454
 20
1013.5543878781574
 30
0
 11
20.470530727638561
 21
1011.5571222912187
 31
0
  0
ARC
  5
14A
330
1F
100
AcDbEntity
  8
0
 62
7
100
AcDbCircle
 10
26.042899840168502
 20
1011.8488455741818
 30
0
 40
5.5800000000088
100
AcDbArc
 50
182.99679862706546
 51
2.9966009897016552
  0
LINE
  5
14B
330
1F
100
AcDbEntity
  8
0
 62
7
100
AcDbLine
 10
31.615269958942008
 20
1012.1405496356866
 30
0
 11
31.510713199979364
 21
1014.1378142483201
 31
0
  0
ARC
  5
14C
330
1F
100
AcDbEntity
  8
0
 62
7
100
AcDbCircle
 10
25.938344095298817
 20
1013.8460908154012
 30
0
 40
5.58000000000994
100
AcDbArc
 50
2.9968001689273951
 51
182.99658942991488
  0
LINE
  5
14D
330
1F
100
AcDbEntity
  8
0
 62
7
100
AcDbLine
 10
559.99578563883188
 20
1219.9814477441971
 30
0
 11
559.55823556770065
 21
1157.482978922689
 31
0
  0
ARC
  5
14E
330
1F
100
AcDbEntity
  8
0
 62
7
100
AcDbCircle
 10
554.55835809750761
 20
1157.5179829278634
 30
0
 40
4.99999999973235
100
AcDbArc
 50
269.59888036473507
 51
359.59888037086336
  0
LINE
  5
14F
330
1F
100
AcDbEntity
  8
0
 62
7
100
AcDbLine
 10
554.52335409179841
 20
1152.5181054576735
 30
0
 11
452.27585960424631
 21
1153.233937370512
 31
0
  0
ARC
  5
150
330
1F
100
AcDbEntity
  8
0
 62
7
100
AcDbCircle
 10
452.31086382635658
 20
1158.233814839454
 30
0
 40
5
100
AcDbArc
 50
179.59888036779984
 51
269.59887788492205
  0
LINE
  5
151
330
1F
100
AcDbEntity
  8
0
 62
7
100
AcDbLine
 10
447.31098635589751
 20
1158.2688188448976
 30
0
 11
447.37241855489265
 21
1167.0436280082879
 31
0
  0
ARC
  5
152
330
1F
100
AcDbEntity
  8
0
 62
7
100
AcDbCircle
 10
442.37254108590923
 20
1167.0786322244605
 30
0
 40
5
100
AcDbArc
 50
359.59887795296396
 51
89.598880367799822
  0
LINE
  5
153
330
1F
100
AcDbEntity
  8
0
 62
7
100
AcDbLine
 10
442.40754509135286
 20
1172.0785096949196
 30
0
 11
407.4084028018101
 21
1172.3235377329995
 31
0
  0
ARC
  5
154
330
1F
100
AcDbEntity
  8
0
 62
7
100
AcDbCircle
 10
407.37339879269757
 20
1167.3236602625659
 30
0
 40
5.00000000000002
100
AcDbArc
 50
89.5988803257563
 51
179.59888036779984
  0
LINE
  5
155
330
1F
100
AcDbEntity
  8
0
 62
7
100
AcDbLine
 10
402.3735213222385
 20
1167.3586642680095
 30
0
 11
402.31208912176726
 21
1158.5838548938902
 31
0
  0
ARC
  5
156
330
1F
100
AcDbEntity
  8
0
 62
7
100
AcDbCircle
 10
397.31221165143324
 20
1158.6188588992075
 30
0
 40
4.99999999987383
100
AcDbArc
 50
269.59888036634624
 51
359.59888036923843
  0
LINE
  5
157
330
1F
100
AcDbEntity
  8
0
 62
7
100
AcDbLine
 10
397.27720764586365
 20
1153.6189814288748
 30
0
 11
358.52818777030461
 21
1153.8902622573898
 31
0
  0
ARC
  5
158
330
1F
100
AcDbEntity
  8
0
 62
7
100
AcDbCircle
 10
358.49318376083284
 20
1148.8903847873237
 30
0
 40
4.99999999963572
100
AcDbArc
 50
89.598880321610224
 51
179.59887532100259
  0
LINE
  5
159
330
1F
100
AcDbEntity
  8
0
 62
7
100
AcDbLine
 10
353.49330629382121
 20
1148.92538923317
 30
0
 11
352.9612454125695
 21
1072.9272518951941
 31
0
  0
ARC
  5
15A
330
1F
100
AcDbEntity
  8
0
 62
7
100
AcDbCircle
 10
357.96112287845153
 20
1072.8922472359802
 30
0
 40
5
100
AcDbArc
 50
179.59887287596092
 51
269.59888036779972
  0
LINE
  5
15B
330
1F
100
AcDbEntity
  8
0
 62
7
100
AcDbLine
 10
357.92611887300791
 20
1067.8923697655221
 30
0
 11
578.92067255046277
 21
1066.3451929385621
 31
0
  0
ARC
  5
15C
330
1F
100
AcDbEntity
  8
0
 62
7
100
AcDbCircle
 10
578.95567655605328
 20
1071.3450704088712
 30
0
 40
4.99999999985213
100
AcDbArc
 50
269.59888036610465
 51
359.59888036949724
  0
LINE
  5
15D
330
1F
100
AcDbEntity
  8
0
 62
7
100
AcDbLine
 10
583.95555402636546
 20
1071.3100664035767
 30
0
 11
584.99517298656519
 21
1219.8064270654788
 31
0
  0
ARC
  5
15E
330
1F
100
AcDbEntity
  8
0
 62
7
100
AcDbCircle
 10
579.99529551758178
 20
1219.8414312816515
 30
0
 40
5
100
AcDbArc
 50
359.59887795296396
 51
89.598877952964045
  0
LINE
  5
15F
330
1F
100
AcDbEntity
  8
0
 62
7
100
AcDbLine
 10
580.03029973375442
 20
1224.8413087506353
 30
0
 11
565.03066711164865
 21
1224.9463207684414
 31
0
  0
ARC
  5
160
330
1F
100
AcDbEntity
  8
0
 62
7
100
AcDbCircle
 10
564.995663106205
 20
1219.9464432979814
 30
0
 40
5.00000000000002
100
AcDbArc
 50
89.598880367799907
 51
179.59887531680036
  0
CIRCLE
  5
161
330
1F
100
AcDbEntity
  8
0
 62
7
100
AcDbCircle
 10
368.47893709993468
 20
1146.8204257878854
 30
0
 40
3.58
  0
CIRCLE
  5
162
330
1F
100
AcDbEntity
  8
0
 62
7
100
AcDbCircle
 10
362.52241603580069
 20
1103.0610507920512
 30
0
 40
3.58
  0
CIRCLE
  5
163
330
1F
100
AcDbEntity
  8
0
 62
7
100
AcDbCircle
 10
577.47378484828823
 20
1145.3572585739905
 30
0
 40
3.58
  0
CIRCLE
  5
164
330
1F
100
AcDbEntity
  8
0
 62
7
100
AcDbCircle
 10
575.69289365952636
 20
1212.37136848059
 30
0
 40
3.58
  0
LINE
  5
165
330
1F
100
AcDbEntity
  8
0
 62
7
100
AcDbLine
 10
533.54136094486375
 20
1083.7432955701718
 30
0
 11
531.54141035706789
 21
1083.7572971695456
 31
0
  0
ARC
  5
166
330
1F
100
AcDbEntity
  8
0
 62
7
100
AcDbCircle
 10
531.50935425942089
 20
1079.1774093535989
 30
0
 40
4.58000000000607
100
AcDbArc
 50
89.5989750875425
 51
269.59878063908883
  0
LINE
  5
167
330
1F
100
AcDbEntity
  8
0
 62
7
100
AcDbLine
 10
531.4772826187077
 20
1074.5975216464697
 30
0
 11
533.47723400727864
 21
1074.5835200414888
 31
0
  0
ARC
  5
168
330
1F
100
AcDbEntity
  8
0
 62
7
100
AcDbCircle
 10
533.509311615851
 20
1079.1634077068386
 30
0
 40
4.57999999997765
100
AcDbArc
 50
269.59870597936845
 51
89.599059765201048
  0
LINE
  5
169
330
1F
100
AcDbEntity
  8
0
 62
7
100
AcDbLine
 10
433.54381153568511
 20
1084.4433756790443
 30
0
 11
431.54386094788879
 21
1084.4573772784181
 31
0
  0
ARC
  5
16A
330
1F
100
AcDbEntity
  8
0
 62
7
100
AcDbCircle
 10
431.51181809109266
 20
1079.8774893697721
 30
0
 40
4.58000000004768
100
AcDbArc
 50
89.5991407345871
 51
269.59861499204993
  0
LINE
  5
16B
330
1F
100
AcDbEntity
  8
0
 62
7
100
AcDbLine
 10
431.47973320952906
 20
1075.2976017553422
 30
0
 11
433.47968459809954
 21
1075.2836001503613
 31
0
  0
ARC
  5
16C
330
1F
100
AcDbEntity
  8
0
 62
7
100
AcDbCircle
 10
433.511771247091
 20
1079.8634877524194
 30
0
 40
4.57999999994081
100
AcDbArc
 50
269.59859288099346
 51
89.599172863570331
  0
LINE
  5
16D
330
1F
100
AcDbEntity
  8
0
 62
7
100
AcDbLine
 10
373.54531240700817
 20
1084.8634235307193
 30
0
 11
371.54536181921185
 21
1084.877425130094
 31
0
  0
ARC
  5
16E
330
1F
100
AcDbEntity
  8
0
 62
7
100
AcDbCircle
 10
371.51328596238091
 20
1080.2975374524815
 30
0
 40
4.57999999998379
100
AcDbArc
 50
89.598727894182
 51
269.59902783244945
  0
LINE
  5
16F
330
1F
100
AcDbEntity
  8
0
 62
7
100
AcDbLine
 10
371.48123408085166
 20
1075.7176496070172
 30
0
 11
373.4811854694226
 21
1075.7036480020372
 31
0
  0
ARC
  5
170
330
1F
100
AcDbEntity
  8
0
 62
7
100
AcDbCircle
 10
373.51322990192557
 20
1080.2835358996501
 30
0
 40
4.58000000003904
100
AcDbArc
 50
269.59912102201827
 51
89.598644722545416
  0
ARC
  5
171
330
1F
100
AcDbEntity
  8
0
 62
7
100
AcDbCircle
 10
424.7259531145105
 20
1146.2016605918809
 30
0
 40
5.58
100
AcDbArc
 50
179.5988825877721
 51
359.598893258766
  0
LINE
  5
172
330
1F
100
AcDbEntity
  8
0
 62
7
100
AcDbLine
 10
430.30581638033163
 20
1146.1625973772182
 30
0
 11
430.31981797564913
 21
1148.1625473856941
 31
0
  0
ARC
  5
173
330
1F
100
AcDbEntity
  8
0
 62
7
100
AcDbCircle
 10
424.73995460661126
 20
1148.2015958571458
 30
0
 40
5.58000000002312
100
AcDbArc
 50
359.5990446466642
 51
179.59871103794032
  0
LINE
  5
174
330
1F
100
AcDbEntity
  8
0
 62
7
100
AcDbLine
 10
419.16009146502984
 20
1148.2406768177455
 30
0
 11
419.14608985596487
 21
1146.2407248457596
 31
0
  0
LINE
  5
175
330
1F
100
AcDbEntity
  8
0
 62
7
100
AcDbLine
 10
78.336143939834074
 20
1042.0057286657204
 30
0
 11
78.336143939943213
 21
1104.5057291065025
 31
0
  0
ARC
  5
176
330
1F
100
AcDbEntity
  8
0
 62
7
100
AcDbCircle
 10
83.336143939675821
 20
1104.5057291067617
 30
0
 40
4.99999999973235
100
AcDbArc
 50
89.99999999683692
 51
180.00000000297027
  0
LINE
  5
177
330
1F
100
AcDbEntity
  8
0
 62
7
100
AcDbLine
 10
83.336143939951853
 20
1109.5057291064943
 30
0
 11
185.58614415662396
 21
1109.5057291063151
 31
0
  0
ARC
  5
178
330
1F
100
AcDbEntity
  8
0
 62
7
100
AcDbCircle
 10
185.58614393994321
 20
1104.5057291063151
 30
0
 40
5
100
AcDbArc
 50
359.99999999990621
 51
89.999997517021555
  0
LINE
  5
179
330
1F
100
AcDbEntity
  8
0
 62
7
100
AcDbLine
 10
190.58614393994321
 20
1104.5057291063069
 30
0
 11
190.58614393992912
 21
1095.7307049029789
 31
0
  0
ARC
  5
17A
330
1F
100
AcDbEntity
  8
0
 62
7
100
AcDbCircle
 10
195.58614393992912
 20
1095.7307046922353
 30
0
 40
5
100
AcDbArc
 50
179.99999758505663
 51
269.99999999989581
  0
LINE
  5
17B
330
1F
100
AcDbEntity
  8
0
 62
7
100
AcDbLine
 10
195.58614393992002
 20
1090.7307046922353
 30
0
 11
230.58614393625021
 21
1090.7307046921744
 31
0
  0
ARC
  5
17C
330
1F
100
AcDbEntity
  8
0
 62
7
100
AcDbCircle
 10
230.58614393992821
 20
1095.7307046921744
 30
0
 40
5.00000000000002
100
AcDbArc
 50
269.99999995785328
 51
359.99999999990621
  0
LINE
  5
17D
330
1F
100
AcDbEntity
  8
0
 62
7
100
AcDbLine
 10
235.58614393992821
 20
1095.7307046921662
 30
0
 11
235.58614393994321
 21
1104.5057291062278
 31
0
  0
ARC
  5
17E
330
1F
100
AcDbEntity
  8
0
 62
7
100
AcDbCircle
 10
240.58614393981725
 20
1104.5057291063451
 30
0
 40
4.99999999987383
100
AcDbArc
 50
89.999999998447109
 51
180.00000000134443
  0
LINE
  5
17F
330
1F
100
AcDbEntity
  8
0
 62
7
100
AcDbLine
 10
240.58614393995276
 20
1109.5057291062196
 30
0
 11
279.3361134187071
 21
1109.5057291061514
 31
0
  0
ARC
  5
180
330
1F
100
AcDbEntity
  8
0
 62
7
100
AcDbCircle
 10
279.33611342274662
 20
1114.5057291057876
 30
0
 40
4.99999999963572
100
AcDbArc
 50
269.99999995371053
 51
359.9999949530951
  0
LINE
  5
181
330
1F
100
AcDbEntity
  8
0
 62
7
100
AcDbLine
 10
284.33611342238282
 20
1114.5057286653621
 30
0
 11
284.33611342251561
 21
1190.5057284523566
 31
0
  0
ARC
  5
182
330
1F
100
AcDbEntity
  8
0
 62
7
100
AcDbCircle
 10
279.33611342251561
 20
1190.5057291061514
 30
0
 40
5
100
AcDbArc
 50
359.99999250806331
 51
89.999999999901
  0
LINE
  5
183
330
1F
100
AcDbEntity
  8
0
 62
7
100
AcDbLine
 10
279.33611342252425
 20
1195.5057291061514
 30
0
 11
58.33614394010192
 21
1195.505729106537
 31
0
  0
ARC
  5
184
330
1F
100
AcDbEntity
  8
0
 62
7
100
AcDbCircle
 10
58.336143939945487
 20
1190.5057291066853
 30
0
 40
4.99999999985213
100
AcDbArc
 50
89.999999998207414
 51
180.00000000159457
  0
LINE
  5
185
330
1F
100
AcDbEntity
  8
0
 62
7
100
AcDbLine
 10
53.33614394009328
 20
1190.5057291065461
 30
0
 11
53.336143939834074
 21
1042.0057293172806
 31
0
  0
ARC
  5
186
330
1F
100
AcDbEntity
  8
0
 62
7
100
AcDbCircle
 10
58.336143939834074
 20
1042.005729106538
 30
0
 40
5
100
AcDbArc
 50
179.99999758506706
 51
269.99999758506181
  0
LINE
  5
187
330
1F
100
AcDbEntity
  8
0
 62
7
100
AcDbLine
 10
58.336143729090963
 20
1037.005729106538
 30
0
 11
73.336143939825433
 21
1037.0057291065107
 31
0
  0
ARC
  5
188
330
1F
100
AcDbEntity
  8
0
 62
7
100
AcDbCircle
 10
73.336143939834074
 20
1042.0057291065116
 30
0
 40
5.00000000000002
100
AcDbArc
 50
269.999999999901
 51
359.99999494890545
  0
CIRCLE
  5
189
330
1F
100
AcDbEntity
  8
0
 62
7
100
AcDbCircle
 10
269.33611342238646
 20
1116.5057291061687
 30
0
 40
3.58
  0
CIRCLE
  5
18A
330
1F
100
AcDbEntity
  8
0
 62
7
100
AcDbCircle
 10
274.98613783652581
 20
1160.3057321579174
 30
0
 40
3.58
  0
CIRCLE
  5
18B
330
1F
100
AcDbEntity
  8
0
 62
7
100
AcDbCircle
 10
60.336143939964131
 20
1116.5057291065343
 30
0
 40
3.58
  0
CIRCLE
  5
18C
330
1F
100
AcDbEntity
  8
0
 62
7
100
AcDbCircle
 10
62.586143939847261
 20
1049.5057291065298
 30
0
 40
3.58
  0
LINE
  5
18D
330
1F
100
AcDbEntity
  8
0
 62
7
100
AcDbLine
 10
103.83614414027124
 20
1178.425744365248
 30
0
 11
105.83614373987439
 21
1178.4257443652443
 31
0
  0
ARC
  5
18E
330
1F
100
AcDbEntity
  8
0
 62
7
100
AcDbCircle
 10
105.83613616835737
 20
1183.0057443652443
 30
0
 40
4.58000000000607
100
AcDbArc
 50
270.00009471964404
 51
89.999900271194
  0
LINE
  5
18F
330
1F
100
AcDbEntity
  8
0
 62
7
100
AcDbLine
 10
105.83614414028716
 20
1187.5857443652433
 30
0
 11
103.8361437398903
 21
1187.5857443652469
 31
0
  0
ARC
  5
190
330
1F
100
AcDbEntity
  8
0
 62
7
100
AcDbCircle
 10
103.83612979995451
 20
1183.005744365247
 30
0
 40
4.57999999997765
100
AcDbArc
 50
89.999825611465525
 51
270.00017939729821
  0
LINE
  5
191
330
1F
100
AcDbEntity
  8
0
 62
7
100
AcDbLine
 10
203.83614414027124
 20
1178.4257443650733
 30
0
 11
205.83614373987439
 21
1178.4257443650697
 31
0
  0
ARC
  5
192
330
1F
100
AcDbEntity
  8
0
 62
7
100
AcDbCircle
 10
205.83612292718226
 20
1183.0057443650696
 30
0
 40
4.58000000004768
100
AcDbArc
 50
270.00026036668538
 51
89.99973462415258
  0
LINE
  5
193
330
1F
100
AcDbEntity
  8
0
 62
7
100
AcDbLine
 10
205.83614414028716
 20
1187.5857443650686
 30
0
 11
203.8361437398903
 21
1187.5857443650723
 31
0
  0
ARC
  5
194
330
1F
100
AcDbEntity
  8
0
 62
7
100
AcDbCircle
 10
203.83612075931433
 20
1183.0057443650724
 30
0
 40
4.57999999994081
100
AcDbArc
 50
89.999712513097322
 51
270.00029249566643
  0
LINE
  5
195
330
1F
100
AcDbEntity
  8
0
 62
7
100
AcDbLine
 10
263.83611362269312
 20
1178.4257443649688
 30
0
 11
265.83611322229626
 21
1178.4257443649651
 31
0
  0
ARC
  5
196
330
1F
100
AcDbEntity
  8
0
 62
7
100
AcDbCircle
 10
265.83612541044704
 20
1183.0057443649641
 30
0
 40
4.57999999998379
100
AcDbArc
 50
269.99984752628831
 51
90.0001474645497
  0
LINE
  5
197
330
1F
100
AcDbEntity
  8
0
 62
7
100
AcDbLine
 10
265.83611362270904
 20
1187.5857443649641
 30
0
 11
263.83611322231218
 21
1187.5857443649677
 31
0
  0
ARC
  5
198
330
1F
100
AcDbEntity
  8
0
 62
7
100
AcDbCircle
 10
263.83613245925926
 20
1183.0057443649687
 30
0
 40
4.58000000003904
100
AcDbArc
 50
90.000240654121953
 51
269.9997643546418
  0
ARC
  5
199
330
1F
100
AcDbEntity
  8
0
 62
7
100
AcDbCircle
 10
213.08614393996459
 20
1116.7307049679177
 30
0
 40
5.58
100
AcDbArc
 50
2.2198575015990713E-06
 51
180.00001289087007
  0
LINE
  5
19A
330
1F
100
AcDbEntity
  8
0
 62
7
100
AcDbLine
 10
207.50614393996466
 20
1116.730703712484
 30
0
 11
207.50614393996193
 21
1114.7307046922153
 31
0
  0
ARC
  5
19B
330
1F
100
AcDbEntity
  8
0
 62
7
100
AcDbCircle
 10
213.08614393996186
 20
1114.7307206912212
 30
0
 40
5.58000000002312
100
AcDbArc
 50
180.00016427876582
 51
359.99983067003666
  0
LINE
  5
19C
330
1F
100
AcDbEntity
  8
0
 62
7
100
AcDbLine
 10
218.66614393996088
 20
1114.7307042002824
 30
0
 11
218.66614393996451
 21
1116.7307051841083
 31
0
  0
LINE
  5
19D
330
1F
100
AcDbEntity
  8
0
 62
7
100
AcDbLine
 10
291.50129979393751
 20
1150.614143665721
 30
0
 11
290.84176402439971
 21
1088.1176232212476
 31
0
  0
ARC
  5
19E
330
1F
100
AcDbEntity
  8
0
 62
7
100
AcDbCircle
 10
285.84204242436726
 20
1088.1703860821683
 30
0
 40
4.99999999973235
100
AcDbArc
 50
269.39537092273093
 51
359.39537092886457
  0
LINE
  5
19F
330
1F
100
AcDbEntity
  8
0
 62
7
100
AcDbLine
 10
285.78927956291136
 20
1083.1706644821409
 30
0
 11
183.54497262017276
 21
1084.2496649957814
 31
0
  0
ARC
  5
1A0
330
1F
100
AcDbEntity
  8
0
 62
7
100
AcDbCircle
 10
183.59773569802337
 20
1089.2493865937925
 30
0
 40
5
100
AcDbArc
 50
179.39537092580139
 51
269.39536844292439
  0
LINE
  5
1A1
330
1F
100
AcDbEntity
  8
0
 62
7
100
AcDbLine
 10
178.59801409772626
 20
1089.3021494549832
 30
0
 11
178.6906131745227
 21
1098.0766850654848
 31
0
  0
ARC
  5
1A2
330
1F
100
AcDbEntity
  8
0
 62
7
100
AcDbCircle
 10
173.6908915764493
 20
1098.1294481373982
 30
0
 40
5
100
AcDbArc
 50
359.39536851096329
 51
89.39537092580143
  0
LINE
  5
1A3
330
1F
100
AcDbEntity
  8
0
 62
7
100
AcDbLine
 10
173.74365443764009
 20
1103.1291697376957
 30
0
 11
138.74560323922879
 21
1103.498509765993
 31
0
  0
ARC
  5
1A4
330
1F
100
AcDbEntity
  8
0
 62
7
100
AcDbCircle
 10
138.6928403743691
 20
1098.4987881657346
 30
0
 40
5.00000000000002
100
AcDbArc
 50
89.395370883756513
 51
179.39537092579096
  0
LINE
  5
1A5
330
1F
100
AcDbEntity
  8
0
 62
7
100
AcDbLine
 10
133.693118774072
 20
1098.5515510269263
 30
0
 11
133.60051969505093
 21
1089.7770152057012
 31
0
  0
ARC
  5
1A6
330
1F
100
AcDbEntity
  8
0
 62
7
100
AcDbCircle
 10
128.60079809487843
 20
1089.8297780667647
 30
0
 40
4.99999999987383
100
AcDbArc
 50
269.3953709243425
 51
359.39537092724532
  0
LINE
  5
1A7
330
1F
100
AcDbEntity
  8
0
 62
7
100
AcDbLine
 10
128.54803523356168
 20
1084.8300564665954
 30
0
 11
89.800223350804572
 21
1085.2389683187469
 31
0
  0
ARC
  5
1A8
330
1F
100
AcDbEntity
  8
0
 62
7
100
AcDbCircle
 10
89.747460485586544
 20
1080.2392467188567
 30
0
 40
4.99999999963572
100
AcDbArc
 50
89.39537087960592
 51
179.39536587899872
  0
LINE
  5
1A9
330
1F
100
AcDbEntity
  8
0
 62
7
100
AcDbLine
 10
84.7477388903012
 20
1080.2920100204358
 30
0
 11
83.945743402447079
 21
1004.2962419089109
 31
0
  0
ARC
  5
1AA
330
1F
100
AcDbEntity
  8
0
 62
7
100
AcDbCircle
 10
88.945464995845214
 20
1004.2434783939699
 30
0
 40
5
100
AcDbArc
 50
179.39536343395824
 51
269.3953709257961
  0
LINE
  5
1AB
330
1F
100
AcDbEntity
  8
0
 62
7
100
AcDbLine
 10
88.892702134653973
 20
999.24375679367324
 30
0
 11
309.88036635191429
 21
996.9116386510733
 31
0
  0
ARC
  5
1AC
330
1F
100
AcDbEntity
  8
0
 62
7
100
AcDbCircle
 10
309.9331292132515
 20
1001.9113602512217
 30
0
 40
4.99999999985213
100
AcDbArc
 50
269.39537092410552
 51
359.39537092749282
  0
LINE
  5
1AD
330
1F
100
AcDbEntity
  8
0
 62
7
100
AcDbLine
 10
314.93285081340218
 20
1001.8585973901801
 30
0
 11
316.49990778854863
 21
1150.350328708286
 31
0
  0
ARC
  5
1AE
330
1F
100
AcDbEntity
  8
0
 62
7
100
AcDbCircle
 10
311.50018619047478
 20
1150.4030917801995
 30
0
 40
5
100
AcDbArc
 50
359.39536851096335
 51
89.395368510958107
  0
LINE
  5
1AF
330
1F
100
AcDbEntity
  8
0
 62
7
100
AcDbLine
 10
311.55294926238867
 20
1155.4028133782733
 30
0
 11
296.55378425077424
 21
1155.5611019640694
 31
0
  0
ARC
  5
1B0
330
1F
100
AcDbEntity
  8
0
 62
7
100
AcDbCircle
 10
296.50102138958346
 20
1150.5613803637718
 30
0
 40
5.00000000000002
100
AcDbArc
 50
89.39537092580143
 51
179.39536587480077
  0
CIRCLE
  5
1B1
330
1F
100
AcDbEntity
  8
0
 62
7
100
AcDbCircle
 10
99.725798542065149
 20
1078.1338323559878
 30
0
 40
3.58
  0
CIRCLE
  5
1B2
330
1F
100
AcDbEntity
  8
0
 62
7
100
AcDbCircle
 10
93.613886024789281
 20
1034.3958903765727
 30
0
 40
3.58
  0
CIRCLE
  5
1B3
330
1F
100
AcDbEntity
  8
0
 62
7
100
AcDbCircle
 10
308.71413091861132
 20
1075.9283450802461
 30
0
 40
3.58
  0
CIRCLE
  5
1B4
330
1F
100
AcDbEntity
  8
0
 62
7
100
AcDbCircle
 10
307.17127853843613
 20
1142.9483578117663
 30
0
 40
3.58
  0
LINE
  5
1B5
330
1F
100
AcDbEntity
  8
0
 62
7
100
AcDbLine
 10
264.56313736182983
 20
1014.4708144186981
 30
0
 11
262.56324912208584
 21
1014.4919195589492
 31
0
  0
ARC
  5
1B6
330
1F
100
AcDbEntity
  8
0
 62
7
100
AcDbCircle
 10
262.51492591233819
 20
1009.9121744931782
 30
0
 40
4.58000000000607
100
AcDbArc
 50
89.395465645541364
 51
269.39527119709038
  0
LINE
  5
1B7
330
1F
100
AcDbEntity
  8
0
 62
7
100
AcDbLine
 10
262.46658716000911
 20
1005.3324295914309
 30
0
 11
264.46647620050271
 21
1005.3113244427296
 31
0
  0
ARC
  5
1B8
330
1F
100
AcDbEntity
  8
0
 62
7
100
AcDbCircle
 10
264.51482092050537
 20
1009.8910692814999
 30
0
 40
4.57999999997765
100
AcDbArc
 50
269.39519653736352
 51
89.395550323199913
  0
LINE
  5
1B9
330
1F
100
AcDbEntity
  8
0
 62
7
100
AcDbLine
 10
164.5687053558845
 20
1015.5260716425165
 30
0
 11
162.56881711614051
 21
1015.5471767827677
 31
0
  0
ARC
  5
1BA
330
1F
100
AcDbEntity
  8
0
 62
7
100
AcDbCircle
 10
162.52050714683082
 20
1010.9674315772683
 30
0
 40
4.58000000004768
100
AcDbArc
 50
89.3956312925843
 51
269.39510555005313
  0
LINE
  5
1BB
330
1F
100
AcDbEntity
  8
0
 62
7
100
AcDbLine
 10
162.47215515406424
 20
1006.3876868152494
 30
0
 11
164.47204419455784
 21
1006.3665816665481
 31
0
  0
ARC
  5
1BC
330
1F
100
AcDbEntity
  8
0
 62
7
100
AcDbCircle
 10
164.52039795469727
 20
1010.946326409916
 30
0
 40
4.57999999994081
100
AcDbArc
 50
269.39508343899558
 51
89.395663421573573
  0
LINE
  5
1BD
330
1F
100
AcDbEntity
  8
0
 62
7
100
AcDbLine
 10
104.57207666819659
 20
1016.1592256547684
 30
0
 11
102.57218842845214
 21
1016.1803307950196
 31
0
  0
ARC
  5
1BE
330
1F
100
AcDbEntity
  8
0
 62
7
100
AcDbCircle
 10
102.52384546013718
 20
1011.6005859377648
 30
0
 40
4.57999999998379
100
AcDbArc
 50
89.395218452188928
 51
269.3955183904485
  0
LINE
  5
1BF
330
1F
100
AcDbEntity
  8
0
 62
7
100
AcDbLine
 10
102.47552646637587
 20
1007.0208408275013
 30
0
 11
104.47541550686947
 21
1006.9997356788
 31
0
  0
ARC
  5
1C0
330
1F
100
AcDbEntity
  8
0
 62
7
100
AcDbCircle
 10
104.52372705183643
 20
1011.5794808676702
 30
0
 40
4.58000000003904
100
AcDbArc
 50
269.395611580021
 51
89.395135280542391
  0
ARC
  5
1C1
330
1F
100
AcDbEntity
  8
0
 62
7
100
AcDbCircle
 10
155.9702619554987
 20
1077.315287154622
 30
0
 40
5.58
100
AcDbArc
 50
179.39537314577041
 51
359.39538381677011
  0
LINE
  5
1C2
330
1F
100
AcDbEntity
  8
0
 62
7
100
AcDbLine
 10
161.54995127467828
 20
1077.2564050569065
 30
0
 11
161.57105640881491
 21
1079.2562927173478
 31
0
  0
ARC
  5
1C3
330
1F
100
AcDbEntity
  8
0
 62
7
100
AcDbCircle
 10
155.99136693405262
 20
1079.3151600723124
 30
0
 40
5.58000000002312
100
AcDbArc
 50
359.39553520466222
 51
179.39520159594178
  0
LINE
  5
1C4
330
1F
100
AcDbEntity
  8
0
 62
7
100
AcDbLine
 10
150.41167780214346
 20
1079.3740599154119
 30
0
 11
150.39057264728535
 21
1077.3741702915215
 31
0
  0
LINE
  5
1C5
330
1F
100
AcDbEntity
  8
0
 62
7
100
AcDbLine
 10
347.13743512856263
 20
908.4714934821551
 30
0
 11
347.6276187417493
 21
970.96957165359265
 31
0
  0
ARC
  5
1C6
330
1F
100
AcDbEntity
  8
0
 62
7
100
AcDbCircle
 10
352.62746495993724
 20
970.93035696508389
 30
0
 40
4.99999999973235
100
AcDbArc
 50
89.550628157532145
 51
179.55062816366569
  0
LINE
  5
1C7
330
1F
100
AcDbEntity
  8
0
 62
7
100
AcDbLine
 10
352.66667964898124
 20
975.93020318326774
 30
0
 11
454.91353503302116
 21
975.128262796051
 31
0
  0
ARC
  5
1C8
330
1F
100
AcDbEntity
  8
0
 62
7
100
AcDbCircle
 10
454.87432012757745
 20
970.12841657929687
 30
0
 40
5
100
AcDbArc
 50
359.55062816059433
 51
89.550625677721868
  0
LINE
  5
1C9
330
1F
100
AcDbEntity
  8
0
 62
7
100
AcDbLine
 10
459.87416634603096
 20
970.089201890518
 30
0
 11
459.80534437740062
 21
961.31444757454949
 31
0
  0
ARC
  5
1CA
330
1F
100
AcDbEntity
  8
0
 62
7
100
AcDbCircle
 10
464.80519059420158
 20
961.2752326750425
 30
0
 40
5
100
AcDbArc
 50
179.55062574575388
 51
269.5506281605995
  0
LINE
  5
1CB
330
1F
100
AcDbEntity
  8
0
 62
7
100
AcDbLine
 10
464.76597590542315
 20
956.27538645658944
 30
0
 11
499.76489943092793
 21
956.00088363516909
 31
0
  0
ARC
  5
1CC
330
1F
100
AcDbEntity
  8
0
 62
7
100
AcDbCircle
 10
499.80411412337526
 20
961.000729853594
 30
0
 40
5.00000000000002
100
AcDbArc
 50
269.55062811855572
 51
359.55062816059433
  0
LINE
  5
1CD
330
1F
100
AcDbEntity
  8
0
 62
7
100
AcDbLine
 10
504.80396034182877
 20
960.96151516481507
 30
0
 11
504.87278231211258
 21
969.73626969151258
 31
0
  0
ARC
  5
1CE
330
1F
100
AcDbEntity
  8
0
 62
7
100
AcDbCircle
 10
509.87262853044149
 20
969.697055002861
 30
0
 40
4.99999999987383
100
AcDbArc
 50
89.550628159144708
 51
179.55062816204216
  0
LINE
  5
1CF
330
1F
100
AcDbEntity
  8
0
 62
7
100
AcDbLine
 10
509.91184321934588
 20
974.69690122118766
 30
0
 11
548.66062089205343
 21
974.39298762253122
 31
0
  0
ARC
  5
1D0
330
1F
100
AcDbEntity
  8
0
 62
7
100
AcDbCircle
 10
548.69983558485956
 20
979.39283384058865
 30
0
 40
4.99999999963572
100
AcDbArc
 50
269.55062811441132
 51
359.55062311380374
  0
LINE
  5
1D1
330
1F
100
AcDbEntity
  8
0
 62
7
100
AcDbLine
 10
553.699681799495
 20
979.3536187114106
 30
0
 11
554.29574506725612
 21
1055.3512810189052
 31
0
  0
ARC
  5
1D2
330
1F
100
AcDbEntity
  8
0
 62
7
100
AcDbCircle
 10
549.29589885392988
 20
1055.3904963614498
 30
0
 40
5
100
AcDbArc
 50
359.5506206687607
 51
89.550628160599473
  0
LINE
  5
1D3
330
1F
100
AcDbEntity
  8
0
 62
7
100
AcDbLine
 10
549.33511354270831
 20
1060.3903425799028
 30
0
 11
328.34194120370194
 21
1062.1236315845611
 31
0
  0
ARC
  5
1D4
330
1F
100
AcDbEntity
  8
0
 62
7
100
AcDbCircle
 10
328.30272651477708
 20
1057.1237853662562
 30
0
 40
4.99999999985213
100
AcDbArc
 50
89.550628158908268
 51
179.55062816229031
  0
LINE
  5
1D5
330
1F
100
AcDbEntity
  8
0
 62
7
100
AcDbLine
 10
323.30288029647
 20
1057.163000054886
 30
0
 11
322.13820404140461
 21
908.66756757754331
 31
0
  0
ARC
  5
1D6
330
1F
100
AcDbEntity
  8
0
 62
7
100
AcDbCircle
 10
327.13805025820557
 20
908.62835267803723
 30
0
 40
5
100
AcDbArc
 50
179.55062574576431
 51
269.550625745759
  0
LINE
  5
1D7
330
1F
100
AcDbEntity
  8
0
 62
7
100
AcDbLine
 10
327.09883535869903
 20
903.62850646123673
 30
0
 11
342.09837422478768
 21
903.51086239324843
 31
0
  0
ARC
  5
1D8
330
1F
100
AcDbEntity
  8
0
 62
7
100
AcDbCircle
 10
342.13758891356611
 20
908.5107086117024
 30
0
 40
5.00000000000002
100
AcDbArc
 50
269.55062816059956
 51
359.55062310960494
  0
CIRCLE
  5
1D9
330
1F
100
AcDbEntity
  8
0
 62
7
100
AcDbCircle
 10
538.71582902310274
 20
981.47120170589471
 30
0
 40
3.58
  0
CIRCLE
  5
1DA
330
1F
100
AcDbEntity
  8
0
 62
7
100
AcDbCircle
 10
544.70920036090092
 20
1025.2255448414137
 30
0
 40
3.58
  0
CIRCLE
  5
1DB
330
1F
100
AcDbEntity
  8
0
 62
7
100
AcDbCircle
 10
329.7222876083847
 20
983.11037545748343
 30
0
 40
3.58
  0
CIRCLE
  5
1DC
330
1F
100
AcDbEntity
  8
0
 62
7
100
AcDbCircle
 10
331.44674157705867
 20
916.09478952025631
 30
0
 40
3.58
  0
LINE
  5
1DD
330
1F
100
AcDbEntity
  8
0
 62
7
100
AcDbLine
 10
373.7065847346289
 20
1044.6873184911904
 30
0
 11
375.70652282162519
 21
1044.6716326188191
 31
0
  0
ARC
  5
1DE
330
1F
100
AcDbEntity
  8
0
 62
7
100
AcDbCircle
 10
375.7424359052543
 20
1049.2514918143063
 30
0
 40
4.58000000000607
100
AcDbArc
 50
269.55072288034097
 51
89.550528431889248
  0
LINE
  5
1DF
330
1F
100
AcDbEntity
  8
0
 62
7
100
AcDbLine
 10
375.77836453185228
 20
1053.8313508878848
 30
0
 11
373.77842564408593
 21
1053.847036766537
 31
0
  0
ARC
  5
1E0
330
1F
100
AcDbEntity
  8
0
 62
7
100
AcDbCircle
 10
373.74249104966611
 20
1049.2671777397638
 30
0
 40
4.57999999997765
100
AcDbArc
 50
89.550453772168666
 51
269.55080755799969
  0
LINE
  5
1E1
330
1F
100
AcDbEntity
  8
0
 62
7
100
AcDbLine
 10
473.70350910369916
 20
1043.9030247156227
 30
0
 11
475.7034471906959
 21
1043.8873388432523
 31
0
  0
ARC
  5
1E2
330
1F
100
AcDbEntity
  8
0
 62
7
100
AcDbCircle
 10
475.7393470335569
 20
1048.4671981425884
 30
0
 40
4.58000000004768
100
AcDbArc
 50
269.55088852738544
 51
89.550362784850392
  0
LINE
  5
1E3
330
1F
100
AcDbEntity
  8
0
 62
7
100
AcDbLine
 10
475.77528890092253
 20
1053.0470571123171
 30
0
 11
473.77535001315664
 21
1053.0627429909684
 31
0
  0
ARC
  5
1E4
330
1F
100
AcDbEntity
  8
0
 62
7
100
AcDbCircle
 10
473.7394063783745
 20
1048.4828840351013
 30
0
 40
4.57999999994081
100
AcDbArc
 50
89.550340673797791
 51
269.55092065636478
  0
LINE
  5
1E5
330
1F
100
AcDbEntity
  8
0
 62
7
100
AcDbLine
 10
533.70163320850224
 20
1043.4324486896296
 30
0
 11
535.701571295499
 21
1043.4167628172584
 31
0
  0
ARC
  5
1E6
330
1F
100
AcDbEntity
  8
0
 62
7
100
AcDbCircle
 10
535.73750413818789
 20
1047.9966218577704
 30
0
 40
4.57999999998379
100
AcDbArc
 50
269.55047568698848
 51
89.550775625247482
  0
LINE
  5
1E7
330
1F
100
AcDbEntity
  8
0
 62
7
100
AcDbLine
 10
535.77341300572562
 20
1052.5764810863241
 30
0
 11
533.77347411795927
 21
1052.5921669649754
 31
0
  0
ARC
  5
1E8
330
1F
100
AcDbEntity
  8
0
 62
7
100
AcDbCircle
 10
533.73757269940188
 20
1048.0123076779994
 30
0
 40
4.58000000003904
100
AcDbArc
 50
89.55086881482427
 51
269.550392515344
  0
ARC
  5
1E9
330
1F
100
AcDbEntity
  8
0
 62
7
100
AcDbCircle
 10
482.46935405381964
 20
982.13733565752693
 30
0
 40
5.58
100
AcDbArc
 50
359.55063038055624
 51
179.55064105157018
  0
LINE
  5
1EA
330
1F
100
AcDbEntity
  8
0
 62
7
100
AcDbLine
 10
476.889525664179
 20
982.18109799479873
 30
0
 11
476.87383979635251
 21
980.18116048711829
 31
0
  0
ARC
  5
1EB
330
1F
100
AcDbEntity
  8
0
 62
7
100
AcDbCircle
 10
482.45366830162584
 20
980.1374128929657
 30
0
 40
5.58000000002312
100
AcDbArc
 50
179.55079243947137
 51
359.55045883073552
  0
LINE
  5
1EC
330
1F
100
AcDbEntity
  8
0
 62
7
100
AcDbLine
 10
488.03349655208194
 20
980.093632809867
 30
0
 11
488.04918243530938
 21
982.09357228104375
 31
0
  0
LINE
  5
1ED
330
1F
100
AcDbEntity
  8
0
 62
7
100
AcDbLine
 10
559.99537163883178
 20
1017.0303764103329
 30
0
 11
559.50518804996955
 21
954.53229823870436
 31
0
  0
ARC
  5
1EE
330
1F
100
AcDbEntity
  8
0
 62
7
100
AcDbCircle
 10
554.5053418317666
 20
954.5715129252668
 30
0
 40
4.99999999973235
100
AcDbArc
 50
269.55062817983071
 51
359.55062818596952
  0
LINE
  5
1EF
330
1F
100
AcDbEntity
  8
0
 62
7
100
AcDbLine
 10
554.46612714466846
 20
949.5716667070684
 30
0
 11
452.21927176031659
 21
950.37360705449021
 31
0
  0
ARC
  5
1F0
330
1F
100
AcDbEntity
  8
0
 62
7
100
AcDbCircle
 10
452.258486663814
 20
955.37345327125979
 30
0
 40
5
100
AcDbArc
 50
179.55062818289815
 51
269.55062570002571
  0
LINE
  5
1F1
330
1F
100
AcDbEntity
  8
0
 62
7
100
AcDbLine
 10
447.25864044534546
 20
955.41266795809236
 30
0
 11
447.3274624105602
 21
964.18742227408814
 31
0
  0
ARC
  5
1F2
330
1F
100
AcDbEntity
  8
0
 62
7
100
AcDbCircle
 10
442.32761619374423
 20
964.2266371716488
 30
0
 40
5
100
AcDbArc
 50
359.55062576805767
 51
89.550628182898151
  0
LINE
  5
1F3
330
1F
100
AcDbEntity
  8
0
 62
7
100
AcDbLine
 10
442.3668308805768
 20
969.22648339011732
 30
0
 11
407.36790735496515
 21
969.50098619791527
 31
0
  0
ARC
  5
1F4
330
1F
100
AcDbEntity
  8
0
 62
7
100
AcDbCircle
 10
407.32869266446369
 20
964.50113997947494
 30
0
 40
5.00000000000002
100
AcDbArc
 50
89.550628140854386
 51
179.55062818289815
  0
LINE
  5
1F5
330
1F
100
AcDbEntity
  8
0
 62
7
100
AcDbLine
 10
402.32884644599517
 20
964.54035466630751
 30
0
 11
402.26002447912606
 21
955.76560013958363
 31
0
  0
ARC
  5
1F6
330
1F
100
AcDbEntity
  8
0
 62
7
100
AcDbCircle
 10
397.2601782607826
 20
955.80481482628886
 30
0
 40
4.99999999987383
100
AcDbArc
 50
269.5506281814433
 51
359.55062818434595
  0
LINE
  5
1F7
330
1F
100
AcDbEntity
  8
0
 62
7
100
AcDbLine
 10
397.22096357382406
 20
950.80496860794767
 30
0
 11
358.47218590099828
 21
951.108882191522
 31
0
  0
ARC
  5
1F8
330
1F
100
AcDbEntity
  8
0
 62
7
100
AcDbCircle
 10
358.43297121013757
 20
946.10903597344907
 30
0
 40
4.99999999963572
100
AcDbArc
 50
89.550628136704788
 51
179.55062313608673
  0
LINE
  5
1F9
330
1F
100
AcDbEntity
  8
0
 62
7
100
AcDbLine
 10
353.43312499548711
 20
946.14825110068261
 30
0
 11
352.83706175730504
 21
870.15058879295532
 31
0
  0
ARC
  5
1FA
330
1F
100
AcDbEntity
  8
0
 62
7
100
AcDbCircle
 10
357.83690797064628
 20
870.111373452357
 30
0
 40
5
100
AcDbArc
 50
179.55062069106458
 51
269.55062818290344
  0
LINE
  5
1FB
330
1F
100
AcDbEntity
  8
0
 62
7
100
AcDbLine
 10
357.79769328381417
 20
865.11152723388761
 30
0
 11
578.79086562349494
 21
863.378238315243
 31
0
  0
ARC
  5
1FC
330
1F
100
AcDbEntity
  8
0
 62
7
100
AcDbCircle
 10
578.83008031047393
 20
868.3780845335624
 30
0
 40
4.99999999985213
100
AcDbArc
 50
269.55062818120683
 51
359.55062818460453
  0
LINE
  5
1FD
330
1F
100
AcDbEntity
  8
0
 62
7
100
AcDbLine
 10
583.829926528796
 20
868.3388698468799
 30
0
 11
584.99460272606575
 21
1016.8343023246745
 31
0
  0
ARC
  5
1FE
330
1F
100
AcDbEntity
  8
0
 62
7
100
AcDbCircle
 10
579.99475650924978
 20
1016.8735172222351
 30
0
 40
5
100
AcDbArc
 50
359.55062576805767
 51
89.5506257680577
  0
LINE
  5
1FF
330
1F
100
AcDbEntity
  8
0
 62
7
100
AcDbLine
 10
580.03397140681045
 20
1021.8733634390511
 30
0
 11
565.03443254067588
 21
1021.9910075012004
 31
0
  0
ARC
  5
200
330
1F
100
AcDbEntity
  8
0
 62
7
100
AcDbCircle
 10
564.99521785384331
 20
1016.9911612827319
 30
0
 40
5.00000000000002
100
AcDbArc
 50
89.550628182898151
 51
179.55062313190879
  0
CIRCLE
  5
201
330
1F
100
AcDbEntity
  8
0
 62
7
100
AcDbCircle
 10
368.41697777270338
 20
944.03066811203018
 30
0
 40
3.58
  0
CIRCLE
  5
202
330
1F
100
AcDbEntity
  8
0
 62
7
100
AcDbCircle
 10
362.42360645193503
 20
900.27632497417756
 30
0
 40
3.58
  0
CIRCLE
  5
203
330
1F
100
AcDbEntity
  8
0
 62
7
100
AcDbCircle
 10
577.41051918805942
 20
942.391494441783
 30
0
 40
3.58
  0
CIRCLE
  5
204
330
1F
100
AcDbEntity
  8
0
 62
7
100
AcDbCircle
 10
575.686065193303
 20
1009.4070803783389
 30
0
 40
3.58
  0
LINE
  5
205
330
1F
100
AcDbEntity
  8
0
 62
7
100
AcDbLine
 10
533.42622208578177
 20
880.81455139095681
 30
0
 11
531.42628399877913
 21
880.83023726254953
 31
0
  0
ARC
  5
206
330
1F
100
AcDbEntity
  8
0
 62
7
100
AcDbCircle
 10
531.39037091693262
 20
876.2503780670487
 30
0
 40
4.58000000000607
100
AcDbArc
 50
89.5507229026421
 51
269.55052845419038
  0
LINE
  5
207
330
1F
100
AcDbEntity
  8
0
 62
7
100
AcDbLine
 10
531.35444229211726
 20
871.67051899345563
 30
0
 11
533.35438117988951
 21
871.65483311558285
 31
0
  0
ARC
  5
208
330
1F
100
AcDbEntity
  8
0
 62
7
100
AcDbCircle
 10
533.39031577252717
 20
876.23469214236968
 30
0
 40
4.57999999997765
100
AcDbArc
 50
269.55045379446403
 51
89.550807580300784
  0
LINE
  5
209
330
1F
100
AcDbEntity
  8
0
 62
7
100
AcDbLine
 10
433.42929771640638
 20
881.59884512760539
 30
0
 11
431.42935962940328
 21
881.61453099919811
 31
0
  0
ARC
  5
20A
330
1F
100
AcDbEntity
  8
0
 62
7
100
AcDbCircle
 10
431.39345978832489
 20
877.03467169984754
 30
0
 40
4.58000000004768
100
AcDbArc
 50
89.550888549686647
 51
269.55036280715154
  0
LINE
  5
20B
330
1F
100
AcDbEntity
  8
0
 62
7
100
AcDbLine
 10
431.35751792274186
 20
872.45481273010421
 30
0
 11
433.35745681051367
 21
872.43912685223052
 31
0
  0
ARC
  5
20C
330
1F
100
AcDbEntity
  8
0
 62
7
100
AcDbCircle
 10
433.39340044351366
 20
877.01898580811314
 30
0
 40
4.57999999994081
100
AcDbArc
 50
269.55034069609337
 51
89.550920678665875
  0
LINE
  5
20D
330
1F
100
AcDbEntity
  8
0
 62
7
100
AcDbLine
 10
373.43117361142004
 20
882.06942113024627
 30
0
 11
371.43123552441739
 21
882.085107001839
 31
0
  0
ARC
  5
20E
330
1F
100
AcDbEntity
  8
0
 62
7
100
AcDbCircle
 10
371.39530268351064
 20
877.50524796131333
 30
0
 40
4.57999999998379
100
AcDbArc
 50
89.550475709283859
 51
269.55077564754856
  0
LINE
  5
20F
330
1F
100
AcDbEntity
  8
0
 62
7
100
AcDbLine
 10
371.35939381775552
 20
872.925388732746
 30
0
 11
373.35933270552778
 21
872.90970285487231
 31
0
  0
ARC
  5
210
330
1F
100
AcDbEntity
  8
0
 62
7
100
AcDbCircle
 10
373.395234122303
 20
877.48956214186285
 30
0
 40
4.58000000003904
100
AcDbArc
 50
269.55086883711976
 51
89.5503925376451
  0
ARC
  5
211
330
1F
100
AcDbEntity
  8
0
 62
7
100
AcDbCircle
 10
424.66345274224614
 20
943.3645341822895
 30
0
 40
5.58
100
AcDbArc
 50
179.55063040286723
 51
359.55064107386244
  0
LINE
  5
212
330
1F
100
AcDbEntity
  8
0
 62
7
100
AcDbLine
 10
430.24328113190359
 20
943.32077184718867
 30
0
 11
430.25896699895156
 21
945.32070935487548
 31
0
  0
ARC
  5
213
330
1F
100
AcDbEntity
  8
0
 62
7
100
AcDbCircle
 10
424.67913849366141
 20
945.3644569468571
 30
0
 40
5.58000000002312
100
AcDbArc
 50
359.55079246176359
 51
179.55045885304645
  0
LINE
  5
214
330
1F
100
AcDbEntity
  8
0
 62
7
100
AcDbLine
 10
419.09931024318848
 20
945.408237027783
 30
0
 11
419.08362436073912
 21
943.4082975565999
 31
0
  0
LINE
  5
215
330
1F
100
AcDbEntity
  8
0
 62
7
100
AcDbLine
 10
52.401797909578818
 20
968.62771923929461
 30
0
 11
114.89830728755851
 21
967.96713565955736
 31
0
  0
ARC
  5
216
330
1F
100
AcDbEntity
  8
0
 62
7
100
AcDbCircle
 10
114.84546060182265
 20
962.96741494484388
 30
0
 40
4.99999999973235
100
AcDbArc
 50
359.39441030753818
 51
89.394410313666725
  0
LINE
  5
217
330
1F
100
AcDbEntity
  8
0
 62
7
100
AcDbLine
 10
119.84518131653022
 20
962.91456825857324
 30
0
 11
118.76446658541136
 21
860.67027942061679
 31
0
  0
ARC
  5
218
330
1F
100
AcDbEntity
  8
0
 62
7
100
AcDbCircle
 10
113.76474587272378
 20
860.72312632328351
 30
0
 40
5
100
AcDbArc
 50
269.3944103105984
 51
359.39440782771567
  0
LINE
  5
219
330
1F
100
AcDbEntity
  8
0
 62
7
100
AcDbLine
 10
113.71189918671735
 20
855.72340560830537
 30
0
 11
104.93736512995565
 21
855.816151798059
 31
0
  0
ARC
  5
21A
330
1F
100
AcDbEntity
  8
0
 62
7
100
AcDbCircle
 10
104.88451823322657
 20
850.81643108530818
 30
0
 40
5
100
AcDbArc
 50
89.394407895759855
 51
179.39441031060355
  0
LINE
  5
21B
330
1F
100
AcDbEntity
  8
0
 62
7
100
AcDbLine
 10
99.884797518248888
 20
850.86927777131416
 30
0
 11
99.514870716243877
 21
815.87123277013973
 31
0
  0
ARC
  5
21C
330
1F
100
AcDbEntity
  8
0
 62
7
100
AcDbCircle
 10
104.51459143118291
 20
815.81838608046485
 30
0
 40
5.00000000000002
100
AcDbArc
 50
179.39441026855872
 51
269.3944103105984
  0
LINE
  5
21D
330
1F
100
AcDbEntity
  8
0
 62
7
100
AcDbLine
 10
104.46174474517647
 20
810.81866536548671
 30
0
 11
113.23627901266082
 21
810.72591917350485
 31
0
  0
ARC
  5
21E
330
1F
100
AcDbEntity
  8
0
 62
7
100
AcDbCircle
 10
113.18343232678217
 20
805.72619845865222
 30
0
 40
4.99999999987383
100
AcDbArc
 50
359.39441030913957
 51
89.394410312047427
  0
LINE
  5
21F
330
1F
100
AcDbEntity
  8
0
 62
7
100
AcDbLine
 10
118.18315304163252
 20
805.67335177251982
 30
0
 11
117.77359154767282
 21
766.925546750983
 31
0
  0
ARC
  5
220
330
1F
100
AcDbEntity
  8
0
 62
7
100
AcDbCircle
 10
122.77331226224396
 20
766.8727000609498
 30
0
 40
4.99999999963572
100
AcDbArc
 50
179.39441026440809
 51
269.39440526379474
  0
LINE
  5
221
330
1F
100
AcDbEntity
  8
0
 62
7
100
AcDbLine
 10
122.72046513584928
 20
761.87297935099116
 30
0
 11
198.71621979051861
 21
761.06970972594729
 31
0
  0
ARC
  5
222
330
1F
100
AcDbEntity
  8
0
 62
7
100
AcDbCircle
 10
198.76906713027483
 20
766.06943043401509
 30
0
 40
5
100
AcDbArc
 50
269.39440281875909
 51
359.39441031059312
  0
LINE
  5
223
330
1F
100
AcDbEntity
  8
0
 62
7
100
AcDbLine
 10
203.76878784525252
 20
766.0165837480082
 30
0
 11
206.10461104417982
 21
987.00420883415347
 31
0
  0
ARC
  5
224
330
1F
100
AcDbEntity
  8
0
 62
7
100
AcDbCircle
 10
201.10489032935175
 20
987.05705552030679
 30
0
 40
4.99999999985213
100
AcDbArc
 50
359.39441030889719
 51
89.3944103123001
  0
LINE
  5
225
330
1F
100
AcDbEntity
  8
0
 62
7
100
AcDbLine
 10
201.15773701520811
 20
992.05677623513759
 30
0
 11
52.666031991090222
 21
993.6263228072977
 31
0
  0
ARC
  5
226
330
1F
100
AcDbEntity
  8
0
 62
7
100
AcDbCircle
 10
52.613185094361143
 20
988.62660209454691
 30
0
 40
5
100
AcDbArc
 50
89.394407895759855
 51
179.3944078957546
  0
LINE
  5
227
330
1F
100
AcDbEntity
  8
0
 62
7
100
AcDbLine
 10
47.613464381610811
 20
988.67944899127644
 30
0
 11
47.454924321364615
 21
973.68028663562029
 31
0
  0
ARC
  5
228
330
1F
100
AcDbEntity
  8
0
 62
7
100
AcDbCircle
 10
52.4546450363423
 20
973.6274399496134
 30
0
 40
5.00000000000002
100
AcDbArc
 50
179.39441031059314
 51
269.39440525961248
  0
CIRCLE
  5
229
330
1F
100
AcDbEntity
  8
0
 62
7
100
AcDbCircle
 10
124.87889392061561
 20
776.85100281686312
 30
0
 40
3.58
  0
CIRCLE
  5
22A
330
1F
100
AcDbEntity
  8
0
 62
7
100
AcDbCircle
 10
168.61673342218137
 20
770.73835699456879
 30
0
 40
3.58
  0
CIRCLE
  5
22B
330
1F
100
AcDbEntity
  8
0
 62
7
100
AcDbCircle
 10
127.08788507312829
 20
985.83929818706213
 30
0
 40
3.58
  0
CIRCLE
  5
22C
330
1F
100
AcDbEntity
  8
0
 62
7
100
AcDbCircle
 10
60.067846483722406
 20
984.29756945780639
 30
0
 40
3.58
  0
LINE
  5
22D
330
1F
100
AcDbEntity
  8
0
 62
7
100
AcDbLine
 10
188.54467549498031
 20
941.68727424579
 30
0
 11
188.52353682480953
 21
939.68738636017326
 31
0
  0
ARC
  5
22E
330
1F
100
AcDbEntity
  8
0
 62
7
100
AcDbCircle
 10
193.10328107975511
 20
939.63898636689385
 30
0
 40
4.58000000000607
100
AcDbArc
 50
179.3945050303472
 51
359.39431058189587
  0
LINE
  5
22F
330
1F
100
AcDbEntity
  8
0
 62
7
100
AcDbLine
 10
197.68302517041593
 20
939.59057083103573
 30
0
 11
197.70416384905047
 21
941.59045951740165
 31
0
  0
ARC
  5
230
330
1F
100
AcDbEntity
  8
0
 62
7
100
AcDbCircle
 10
193.12441982146674
 20
941.638881020932
 30
0
 40
4.57999999997765
100
AcDbArc
 50
359.39423592217281
 51
179.39458970799802
  0
LINE
  5
231
330
1F
100
AcDbEntity
  8
0
 62
7
100
AcDbLine
 10
187.48774177485438
 20
841.69285994623453
 30
0
 11
187.4666031046836
 21
839.69297206061776
 31
0
  0
ARC
  5
232
330
1F
100
AcDbEntity
  8
0
 62
7
100
AcDbCircle
 10
192.04634749957995
 20
839.64458530777313
 30
0
 40
4.58000000004768
100
AcDbArc
 50
179.39467067737971
 51
359.39414493485197
  0
LINE
  5
233
330
1F
100
AcDbEntity
  8
0
 62
7
100
AcDbLine
 10
196.62609145029
 20
839.59615653147932
 30
0
 11
196.64723012892455
 21
841.59604521784524
 31
0
  0
ARC
  5
234
330
1F
100
AcDbEntity
  8
0
 62
7
100
AcDbCircle
 10
192.06748619689415
 20
841.644475761511
 30
0
 40
4.57999999994081
100
AcDbArc
 50
359.39412282380204
 51
179.39470280635749
  0
LINE
  5
235
330
1F
100
AcDbEntity
  8
0
 62
7
100
AcDbLine
 10
186.85358186532949
 20
781.69624188237424
 30
0
 11
186.8324431951587
 21
779.69635399675747
 31
0
  0
ARC
  5
236
330
1F
100
AcDbEntity
  8
0
 62
7
100
AcDbCircle
 10
191.41218724125702
 20
779.64793424491393
 30
0
 40
4.57999999998379
100
AcDbArc
 50
179.39425783699085
 51
359.39455777524086
  0
LINE
  5
237
330
1F
100
AcDbEntity
  8
0
 62
7
100
AcDbLine
 10
195.99193154076511
 20
779.599538467619
 30
0
 11
196.01307021939965
 21
781.599427153985
 31
0
  0
ARC
  5
238
330
1F
100
AcDbEntity
  8
0
 62
7
100
AcDbCircle
 10
191.43332584115933
 20
781.64781548248641
 30
0
 40
4.58000000003904
100
AcDbArc
 50
359.39465096481854
 51
179.3941746653409
  0
ARC
  5
239
330
1F
100
AcDbEntity
  8
0
 62
7
100
AcDbCircle
 10
125.69838211080832
 20
833.09545249874657
 30
0
 40
5.58
100
AcDbArc
 50
269.39441253056503
 51
89.394423201571215
  0
LINE
  5
23A
330
1F
100
AcDbEntity
  8
0
 62
7
100
AcDbLine
 10
125.75735775701787
 20
838.67514082993068
 30
0
 11
123.75747045070329
 21
838.69627949397739
 31
0
  0
ARC
  5
23B
330
1F
100
AcDbEntity
  8
0
 62
7
100
AcDbCircle
 10
123.69850954724234
 20
833.11659100696318
 30
0
 40
5.58000000002312
100
AcDbArc
 50
89.394574589466856
 51
269.3942409807434
  0
LINE
  5
23C
330
1F
100
AcDbEntity
  8
0
 62
7
100
AcDbLine
 10
123.63951615565202
 20
827.53690286334688
 30
0
 11
125.63940542541422
 21
827.51576417854551
 31
0
  0
LINE
  5
23D
330
1F
100
AcDbEntity
  8
0
 62
7
100
AcDbLine
 10
363.47467208870148
 20
784.33188375376278
 30
0
 11
300.97815163958694
 21
784.99141908350168
 31
0
  0
ARC
  5
23E
330
1F
100
AcDbEntity
  8
0
 62
7
100
AcDbCircle
 10
301.0309144653238
 20
789.99114068390566
 30
0
 40
4.99999999973235
100
AcDbArc
 50
179.39537132593514
 51
269.39537133206369
  0
LINE
  5
23F
330
1F
100
AcDbEntity
  8
0
 62
7
100
AcDbLine
 10
296.03119286492574
 20
790.0439035101773
 30
0
 11
297.11019265905588
 21
892.28821046050973
 31
0
  0
ARC
  5
240
330
1F
100
AcDbEntity
  8
0
 62
7
100
AcDbCircle
 10
302.10991425743805
 20
892.235447417842
 30
0
 40
5
100
AcDbArc
 50
89.395371329000525
 51
179.39536884611312
  0
LINE
  5
241
330
1F
100
AcDbEntity
  8
0
 62
7
100
AcDbLine
 10
302.16267708344503
 20
897.23516901851065
 30
0
 11
310.9372126945982
 21
897.14257000346254
 31
0
  0
ARC
  5
242
330
1F
100
AcDbEntity
  8
0
 62
7
100
AcDbCircle
 10
310.98997573132783
 20
902.14229160190746
 30
0
 40
5
100
AcDbArc
 50
269.39536891416242
 51
359.39537132900051
  0
LINE
  5
243
330
1F
100
AcDbEntity
  8
0
 62
7
100
AcDbLine
 10
315.98969733199647
 20
902.08952877590048
 30
0
 11
316.35903711400715
 21
937.08757997691021
 31
0
  0
ARC
  5
244
330
1F
100
AcDbEntity
  8
0
 62
7
100
AcDbCircle
 10
311.35931551337717
 20
937.14034280658609
 30
0
 40
5.00000000000002
100
AcDbArc
 50
359.39537128695565
 51
89.395371329000525
  0
LINE
  5
245
330
1F
100
AcDbEntity
  8
0
 62
7
100
AcDbLine
 10
311.41207833938415
 20
942.14006440725473
 30
0
 11
302.63754251750788
 21
942.23266342452837
 31
0
  0
ARC
  5
246
330
1F
100
AcDbEntity
  8
0
 62
7
100
AcDbCircle
 10
302.69030534338754
 20
947.23238502507149
 30
0
 40
4.99999999987383
100
AcDbArc
 50
179.39537132753651
 51
269.39537133044433
  0
LINE
  5
247
330
1F
100
AcDbEntity
  8
0
 62
7
100
AcDbLine
 10
297.69058374284668
 20
947.2851478512049
 30
0
 11
298.09949532232349
 21
986.03295973683919
 31
0
  0
ARC
  5
248
330
1F
100
AcDbEntity
  8
0
 62
7
100
AcDbCircle
 10
293.09977372206185
 20
986.08572256687341
 30
0
 40
4.99999999963572
100
AcDbArc
 50
359.39537128280506
 51
89.395366282192612
  0
LINE
  5
249
330
1F
100
AcDbEntity
  8
0
 62
7
100
AcDbLine
 10
293.15253698845754
 20
991.08544416252983
 30
0
 11
217.15676887128848
 21
991.8874391155897
 31
0
  0
ARC
  5
24A
330
1F
100
AcDbEntity
  8
0
 62
7
100
AcDbCircle
 10
217.1040053915317
 20
986.88771752181958
 30
0
 40
5
100
AcDbArc
 50
89.395363837162648
 51
179.39537132899011
  0
LINE
  5
24B
330
1F
100
AcDbEntity
  8
0
 62
7
100
AcDbLine
 10
212.10428379086306
 20
986.94048034782747
 30
0
 11
209.77216720339129
 21
765.95281611415533
 31
0
  0
ARC
  5
24C
330
1F
100
AcDbEntity
  8
0
 62
7
100
AcDbCircle
 10
214.77188880391031
 20
765.90005328800191
 30
0
 40
4.99999999985213
100
AcDbArc
 50
179.39537132730459
 51
269.39537133069717
  0
LINE
  5
24D
330
1F
100
AcDbEntity
  8
0
 62
7
100
AcDbLine
 10
214.71912597805294
 20
760.90033168747971
 30
0
 11
363.21085730718642
 21
759.33327575729538
 31
0
  0
ARC
  5
24E
330
1F
100
AcDbEntity
  8
0
 62
7
100
AcDbCircle
 10
363.26362034391605
 20
764.3329973557403
 30
0
 40
5
100
AcDbArc
 50
269.39536891416242
 51
359.3953689141519
  0
LINE
  5
24F
330
1F
100
AcDbEntity
  8
0
 62
7
100
AcDbLine
 10
368.26334194236051
 20
764.28023431900976
 30
0
 11
368.42163042260563
 21
779.27939933173832
 31
0
  0
ARC
  5
250
330
1F
100
AcDbEntity
  8
0
 62
7
100
AcDbCircle
 10
363.421908821937
 20
779.3321621577453
 30
0
 40
5.00000000000002
100
AcDbArc
 50
359.39537132900051
 51
89.395366278010371
  0
CIRCLE
  5
251
330
1F
100
AcDbEntity
  8
0
 62
7
100
AcDbCircle
 10
290.99435942941227
 20
976.10738449557914
 30
0
 40
3.58
  0
CIRCLE
  5
252
330
1F
100
AcDbEntity
  8
0
 62
7
100
AcDbCircle
 10
247.25641740698666
 20
982.21929670506336
 30
0
 40
3.58
  0
CIRCLE
  5
253
330
1F
100
AcDbEntity
  8
0
 62
7
100
AcDbCircle
 10
288.78887362435717
 20
767.11905210351244
 30
0
 40
3.58
  0
CIRCLE
  5
254
330
1F
100
AcDbEntity
  8
0
 62
7
100
AcDbCircle
 10
355.80888634501889
 20
768.66190495531839
 30
0
 40
3.58
  0
LINE
  5
255
330
1F
100
AcDbEntity
  8
0
 62
7
100
AcDbLine
 10
227.33134265211129
 20
811.27004522780692
 30
0
 11
227.35244777828893
 21
813.26993346769916
 31
0
  0
ARC
  5
256
330
1F
100
AcDbEntity
  8
0
 62
7
100
AcDbCircle
 10
222.77270271217776
 20
813.31825664521887
 30
0
 40
4.58000000000607
100
AcDbArc
 50
359.39546604873527
 51
179.39527160029564
  0
LINE
  5
257
330
1F
100
AcDbEntity
  8
0
 62
7
100
AcDbLine
 10
218.19295781009032
 20
813.36659536531909
 30
0
 11
218.17185267546256
 21
811.36670632467678
 31
0
  0
ARC
  5
258
330
1F
100
AcDbEntity
  8
0
 62
7
100
AcDbCircle
 10
222.75159751457295
 20
811.31836163690252
 30
0
 40
4.57999999997765
100
AcDbArc
 50
179.39519694056312
 51
359.39555072640519
  0
LINE
  5
259
330
1F
100
AcDbEntity
  8
0
 62
7
100
AcDbLine
 10
228.38659917225186
 20
911.26447724117781
 30
0
 11
228.40770429842951
 21
913.26436548107006
 31
0
  0
ARC
  5
25A
330
1F
100
AcDbEntity
  8
0
 62
7
100
AcDbCircle
 10
223.82795909258994
 20
913.31267541815134
 30
0
 40
4.58000000004768
100
AcDbArc
 50
359.39563169578389
 51
179.39510595324703
  0
LINE
  5
25B
330
1F
100
AcDbEntity
  8
0
 62
7
100
AcDbLine
 10
219.24821433023089
 20
913.36102737869
 30
0
 11
219.22710919560313
 21
911.36113833804768
 31
0
  0
ARC
  5
25C
330
1F
100
AcDbEntity
  8
0
 62
7
100
AcDbCircle
 10
223.80685393931117
 20
911.3127846101371
 30
0
 40
4.57999999994081
100
AcDbArc
 50
179.39508384220085
 51
359.39566382476744
  0
LINE
  5
25D
330
1F
100
AcDbEntity
  8
0
 62
7
100
AcDbLine
 10
229.01975276229723
 20
971.26110593332135
 30
0
 11
229.04085788847487
 21
973.2609941732145
 31
0
  0
ARC
  5
25E
330
1F
100
AcDbEntity
  8
0
 62
7
100
AcDbCircle
 10
224.46111303087991
 20
973.309337109301
 30
0
 40
4.57999999998379
100
AcDbArc
 50
359.39521885538852
 51
179.3955187936424
  0
LINE
  5
25F
330
1F
100
AcDbEntity
  8
0
 62
7
100
AcDbLine
 10
219.88136792027626
 20
973.35765607083442
 30
0
 11
219.8602627856485
 21
971.35776703019212
 31
0
  0
ARC
  5
260
330
1F
100
AcDbEntity
  8
0
 62
7
100
AcDbCircle
 10
224.44000797485887
 20
971.3094555174531
 30
0
 40
4.58000000003904
100
AcDbArc
 50
179.39561198321496
 51
359.39513568374196
  0
ARC
  5
261
330
1F
100
AcDbEntity
  8
0
 62
7
100
AcDbCircle
 10
290.17581462384805
 20
919.86292107638485
 30
0
 40
5.58
100
AcDbArc
 50
89.395373548965281
 51
269.39538421996957
  0
LINE
  5
262
330
1F
100
AcDbEntity
  8
0
 62
7
100
AcDbLine
 10
290.11693256539775
 20
914.283231756791
 30
0
 11
292.11682022598825
 21
914.26212663672788
 31
0
  0
ARC
  5
263
330
1F
100
AcDbEntity
  8
0
 62
7
100
AcDbCircle
 10
292.17568754168724
 20
919.84181611190445
 30
0
 40
5.58000000002312
100
AcDbArc
 50
269.39553560786641
 51
89.395201999141278
  0
LINE
  5
264
330
1F
100
AcDbEntity
  8
0
 62
7
100
AcDbLine
 10
292.2345873455215
 20
925.42150524422789
 30
0
 11
290.23469772148292
 21
925.44261038501293
 31
0
  0
LINE
  5
265
330
1F
100
AcDbEntity
  8
0
 62
7
100
AcDbLine
 10
160.37991794630307
 20
755.47458648747681
 30
0
 11
97.883408566434355
 21
756.13516988854656
 31
0
  0
ARC
  5
266
330
1F
100
AcDbEntity
  8
0
 62
7
100
AcDbCircle
 10
97.9362552378766
 20
761.1348906034101
 30
0
 40
4.99999999973235
100
AcDbArc
 50
179.39441047132968
 51
269.39441047746857
  0
LINE
  5
267
330
1F
100
AcDbEntity
  8
0
 62
7
100
AcDbLine
 10
92.936534523018508
 20
761.187737275388
 30
0
 11
94.017248961835776
 21
863.43202611643312
 31
0
  0
ARC
  5
268
330
1F
100
AcDbEntity
  8
0
 62
7
100
AcDbCircle
 10
99.016969674674783
 20
863.37917922806093
 30
0
 40
5
100
AcDbArc
 50
89.394410474400345
 51
179.39440799152814
  0
LINE
  5
269
330
1F
100
AcDbEntity
  8
0
 62
7
100
AcDbLine
 10
99.0698163463876
 20
868.37889994319
 30
0
 11
107.84435040341441
 21
868.28615377852122
 31
0
  0
ARC
  5
26A
330
1F
100
AcDbEntity
  8
0
 62
7
100
AcDbCircle
 10
107.89719728585032
 20
873.285874491423
 30
0
 40
5
100
AcDbArc
 50
269.39440805955661
 51
359.3944104744055
  0
LINE
  5
26B
330
1F
100
AcDbEntity
  8
0
 62
7
100
AcDbLine
 10
112.89691800097899
 20
873.23302781971063
 30
0
 11
113.26684470293003
 21
908.2310728219428
 31
0
  0
ARC
  5
26C
330
1F
100
AcDbEntity
  8
0
 62
7
100
AcDbCircle
 10
108.26712398784002
 20
908.28391949732406
 30
0
 40
5.00000000000002
100
AcDbArc
 50
359.39441043236064
 51
89.394410474400345
  0
LINE
  5
26D
330
1F
100
AcDbEntity
  8
0
 62
7
100
AcDbLine
 10
108.31997065955284
 20
913.28364021245318
 30
0
 11
99.545436391803378
 21
913.37638637934936
 31
0
  0
ARC
  5
26E
330
1F
100
AcDbEntity
  8
0
 62
7
100
AcDbCircle
 10
99.598283063388863
 20
918.37610709435387
 30
0
 40
4.99999999987383
100
AcDbArc
 50
179.39441047294156
 51
269.39441047584421
  0
LINE
  5
26F
330
1F
100
AcDbEntity
  8
0
 62
7
100
AcDbLine
 10
94.598562348387077
 20
918.42895376619265
 30
0
 11
95.0081237315726
 21
957.1767587889
 31
0
  0
ARC
  5
270
330
1F
100
AcDbEntity
  8
0
 62
7
100
AcDbCircle
 10
90.00840301685048
 20
957.22960546463958
 30
0
 40
4.99999999963572
100
AcDbArc
 50
359.39441042821005
 51
89.394405427591579
  0
LINE
  5
271
330
1F
100
AcDbEntity
  8
0
 62
7
100
AcDbLine
 10
90.061250128952
 20
962.2293261747501
 30
0
 11
14.065495471985741
 21
963.03259558253387
 31
0
  0
ARC
  5
272
330
1F
100
AcDbEntity
  8
0
 62
7
100
AcDbCircle
 10
14.012648146523588
 20
958.0328748743151
 30
0
 40
5
100
AcDbArc
 50
89.394402982566234
 51
179.39441047440556
  0
LINE
  5
273
330
1F
100
AcDbEntity
  8
0
 62
7
100
AcDbLine
 10
9.0129274313944734
 20
958.08572154602746
 30
0
 11
6.6771048642372079
 21
737.09809645320468
 31
0
  0
ARC
  5
274
330
1F
100
AcDbEntity
  8
0
 62
7
100
AcDbCircle
 10
11.676825579216711
 20
737.045249781345
 30
0
 40
4.99999999985213
100
AcDbArc
 50
179.39441047269918
 51
269.39441047609694
  0
LINE
  5
275
330
1F
100
AcDbEntity
  8
0
 62
7
100
AcDbLine
 10
11.623978907653509
 20
732.04552906636229
 30
0
 11
160.11568393625839
 21
730.47598291871884
 31
0
  0
ARC
  5
276
330
1F
100
AcDbEntity
  8
0
 62
7
100
AcDbCircle
 10
160.16853081869385
 20
735.47570363161969
 30
0
 40
5
100
AcDbArc
 50
269.39440805956167
 51
359.394408059567
  0
LINE
  5
277
330
1F
100
AcDbEntity
  8
0
 62
7
100
AcDbLine
 10
165.16825153159562
 20
735.42285674918469
 30
0
 11
165.32679154896141
 21
750.42201910529377
 31
0
  0
ARC
  5
278
330
1F
100
AcDbEntity
  8
0
 62
7
100
AcDbCircle
 10
160.32707083383275
 20
750.474865777007
 30
0
 40
5.00000000000002
100
AcDbArc
 50
359.39441047439504
 51
89.3944054234092
  0
CIRCLE
  5
279
330
1F
100
AcDbEntity
  8
0
 62
7
100
AcDbCircle
 10
87.902821387005133
 20
947.25130270270722
 30
0
 40
3.58
  0
CIRCLE
  5
27A
330
1F
100
AcDbEntity
  8
0
 62
7
100
AcDbCircle
 10
44.1649818679648
 20
953.36394839996149
 30
0
 40
3.58
  0
CIRCLE
  5
27B
330
1F
100
AcDbEntity
  8
0
 62
7
100
AcDbCircle
 10
85.693830831959076
 20
738.26300732619268
 30
0
 40
3.58
  0
CIRCLE
  5
27C
330
1F
100
AcDbEntity
  8
0
 62
7
100
AcDbCircle
 10
152.71386941695664
 20
739.80473624704894
 30
0
 40
3.58
  0
LINE
  5
27D
330
1F
100
AcDbEntity
  8
0
 62
7
100
AcDbLine
 10
24.237040283882834
 20
782.41503109176949
 30
0
 11
24.258178948336081
 21
784.41491897744629
 31
0
  0
ARC
  5
27E
330
1F
100
AcDbEntity
  8
0
 62
7
100
AcDbCircle
 10
19.678434693251802
 20
784.46331895763353
 30
0
 40
4.58000000000607
100
AcDbArc
 50
359.39450519413947
 51
179.39431074569941
  0
LINE
  5
27F
330
1F
100
AcDbEntity
  8
0
 62
7
100
AcDbLine
 10
15.098690602452734
 20
784.51173448039856
 30
0
 11
15.07755192953573
 21
782.51184579397261
 31
0
  0
ARC
  5
280
330
1F
100
AcDbEntity
  8
0
 62
7
100
AcDbCircle
 10
19.657295957258157
 20
782.46342430353445
 30
0
 40
4.57999999997765
100
AcDbArc
 50
179.39423608596513
 51
359.3945898718016
  0
LINE
  5
281
330
1F
100
AcDbEntity
  8
0
 62
7
100
AcDbLine
 10
25.293973718139569
 20
882.40944539434724
 30
0
 11
25.315112382592815
 21
884.409333280024
 31
0
  0
ARC
  5
282
330
1F
100
AcDbEntity
  8
0
 62
7
100
AcDbCircle
 10
20.73536798755822
 20
884.45772001977559
 30
0
 40
4.58000000004768
100
AcDbArc
 50
359.39467084118326
 51
179.3941450986556
  0
LINE
  5
283
330
1F
100
AcDbEntity
  8
0
 62
7
100
AcDbLine
 10
16.155624036709469
 20
884.50614878297631
 30
0
 11
16.134485363792464
 21
882.50626009655036
 31
0
  0
ARC
  5
284
330
1F
100
AcDbEntity
  8
0
 62
7
100
AcDbCircle
 10
20.714229295961104
 20
882.45782956597679
 30
0
 40
4.57999999994081
100
AcDbArc
 50
179.39412298759422
 51
359.39470297017249
  0
LINE
  5
285
330
1F
100
AcDbEntity
  8
0
 62
7
100
AcDbLine
 10
25.928133456143314
 20
942.40606346002016
 30
0
 11
25.949272120596561
 21
944.405951345697
 31
0
  0
ARC
  5
286
330
1F
100
AcDbEntity
  8
0
 62
7
100
AcDbCircle
 10
21.369528074360005
 20
944.45437108444833
 30
0
 40
4.57999999998379
100
AcDbArc
 50
359.39425800078305
 51
179.39455793905583
  0
LINE
  5
287
330
1F
100
AcDbEntity
  8
0
 62
7
100
AcDbLine
 10
16.789783774713214
 20
944.50276684864923
 30
0
 11
16.76864510179621
 21
942.50287816222328
 31
0
  0
ARC
  5
288
330
1F
100
AcDbEntity
  8
0
 62
7
100
AcDbCircle
 10
21.348389480175229
 20
942.45448984681491
 30
0
 40
4.58000000003904
100
AcDbArc
 50
179.39465112862223
 51
359.39417482914445
  0
ARC
  5
289
330
1F
100
AcDbEntity
  8
0
 62
7
100
AcDbCircle
 10
87.083333357606989
 20
891.00685301848091
 30
0
 40
5.58
100
AcDbArc
 50
89.394412694361776
 51
269.39442336536791
  0
LINE
  5
28A
330
1F
100
AcDbEntity
  8
0
 62
7
100
AcDbLine
 10
87.024357727348615
 20
885.42716468712854
 30
0
 11
89.024245033723673
 21
885.40602602879892
 31
0
  0
ARC
  5
28B
330
1F
100
AcDbEntity
  8
0
 62
7
100
AcDbCircle
 10
89.083205921233
 20
890.98571451598229
 30
0
 40
5.58000000002312
100
AcDbArc
 50
269.39457475326833
 51
89.394241144540089
  0
LINE
  5
28C
330
1F
100
AcDbEntity
  8
0
 62
7
100
AcDbLine
 10
89.14219929687215
 20
896.56540265976685
 30
0
 11
87.142310027049916
 21
896.58654133885022
 31
0
  0
LINE
  5
28D
330
1F
100
AcDbEntity
  8
0
 62
7
100
AcDbLine
 10
558.72027663883182
 20
825.50840092026749
 30
0
 11
560.00473971242855
 21
796.63694684917584
 31
0
  0
ARC
  5
28E
330
1F
100
AcDbEntity
  8
0
 62
7
100
AcDbCircle
 10
564.99979886051142
 20
796.85917220053045
 30
0
 40
4.9999999999629
100
AcDbArc
 50
182.54735407527264
 51
272.54735407612304
  0
LINE
  5
28F
330
1F
100
AcDbEntity
  8
0
 62
7
100
AcDbLine
 10
565.22202421194015
 20
791.86411305245122
 30
0
 11
580.20720187463439
 21
792.53078911634577
 31
0
  0
ARC
  5
290
330
1F
100
AcDbEntity
  8
0
 62
7
100
AcDbCircle
 10
579.984976304901
 20
797.5258482547498
 30
0
 40
5
100
AcDbArc
 50
272.54735658016568
 51
2.5473540757025179
  0
LINE
  5
291
330
1F
100
AcDbEntity
  8
0
 62
7
100
AcDbLine
 10
584.9800354530189
 20
797.74807360614352
 30
0
 11
582.540000552176
 21
852.59383524744874
 31
0
  0
ARC
  5
292
330
1F
100
AcDbEntity
  8
0
 62
7
100
AcDbCircle
 10
577.54494140396082
 20
852.37160989594952
 30
0
 40
5.00000000010149
100
AcDbArc
 50
2.5473540768607164
 51
92.54735407453451
  0
LINE
  5
293
330
1F
100
AcDbEntity
  8
0
 62
7
100
AcDbLine
 10
577.32271605266442
 20
857.36666904417336
 30
0
 11
390.75725687411978
 21
849.06655216978845
 31
0
  0
ARC
  5
294
330
1F
100
AcDbEntity
  8
0
 62
7
100
AcDbCircle
 10
390.53503151906079
 20
854.06161131774309
 30
0
 40
5.00000000000002
100
AcDbArc
 50
182.5473591266919
 51
272.547354117745
  0
LINE
  5
295
330
1F
100
AcDbEntity
  8
0
 62
7
100
AcDbLine
 10
385.53997239053342
 20
853.839385526003
 30
0
 11
385.52663939240165
 21
854.13907732026848
 31
0
  0
ARC
  5
296
330
1F
100
AcDbEntity
  8
0
 62
7
100
AcDbCircle
 10
380.53158024424783
 20
853.91685196883657
 30
0
 40
5.00000000003686
100
AcDbArc
 50
2.5473540761215143
 51
92.547354075271571
  0
LINE
  5
297
330
1F
100
AcDbEntity
  8
0
 62
7
100
AcDbLine
 10
380.30935489289004
 20
858.91191111699311
 30
0
 11
365.32417744853547
 21
858.24523506281287
 31
0
  0
ARC
  5
298
330
1F
100
AcDbEntity
  8
0
 62
7
100
AcDbCircle
 10
365.54640279992918
 20
853.25017591469452
 30
0
 40
5
100
AcDbArc
 50
92.547354075702287
 51
182.54736158913343
  0
LINE
  5
299
330
1F
100
AcDbEntity
  8
0
 62
7
100
AcDbLine
 10
360.55134368095241
 20
853.02794990827817
 30
0
 11
361.67580338731977
 21
827.7529634687927
 31
0
  0
ARC
  5
29A
330
1F
100
AcDbEntity
  8
0
 62
7
100
AcDbCircle
 10
366.67086253543812
 20
827.97518882018642
 30
0
 40
5.00000000000002
100
AcDbArc
 50
182.54735407570229
 51
272.54735411773976
  0
LINE
  5
29B
330
1F
100
AcDbEntity
  8
0
 62
7
100
AcDbLine
 10
366.89308789049664
 20
822.98012967223178
 30
0
 11
553.45854706904129
 21
831.28024654661579
 31
0
  0
ARC
  5
29C
330
1F
100
AcDbEntity
  8
0
 62
7
100
AcDbCircle
 10
553.78185666176432
 20
826.29071040512474
 30
0
 40
4.9999999999994
100
AcDbArc
 50
350.99840867075585
 51
93.7074416651717
  0
CIRCLE
  5
29D
330
1F
100
AcDbEntity
  8
0
 62
7
100
AcDbCircle
 10
500.95967362100282
 20
846.96242709291721
 30
0
 40
3.58
  0
CIRCLE
  5
29E
330
1F
100
AcDbEntity
  8
0
 62
7
100
AcDbCircle
 10
572.303497390395
 20
801.43828001613849
 30
0
 40
3.58
  0
LINE
  5
29F
330
1F
100
AcDbEntity
  8
0
 62
7
100
AcDbLine
 10
371.62580855627493
 20
851.5987436343313
 30
0
 11
369.62778440968987
 21
851.509853472092
 31
0
  0
ARC
  5
2A0
330
1F
100
AcDbEntity
  8
0
 62
7
100
AcDbCircle
 10
369.875797759893
 20
845.93536790136761
 30
0
 40
5.5800000000088
100
AcDbArc
 50
92.547455398860933
 51
272.54725776150366
  0
LINE
  5
2A1
330
1F
100
AcDbEntity
  8
0
 62
7
100
AcDbLine
 10
370.12379188133809
 20
840.3608814751725
 30
0
 11
372.12181505324816
 21
840.44977159404891
 31
0
  0
ARC
  5
2A2
330
1F
100
AcDbEntity
  8
0
 62
7
100
AcDbCircle
 10
371.87380155303163
 20
846.02425715810125
 30
0
 40
5.58000000000994
100
AcDbArc
 50
272.54745694073063
 51
92.547246201712085
  0
LINE
  5
2A3
330
1F
100
AcDbEntity
  8
0
 62
7
100
AcDbLine
 10
355.90395785402552
 20
822.49123442963366
 30
0
 11
354.619494765916
 21
851.36268850008048
 31
0
  0
ARC
  5
2A4
330
1F
100
AcDbEntity
  8
0
 62
7
100
AcDbCircle
 10
349.624435617945
 20
851.14046314621476
 30
0
 40
4.9999999999629
100
AcDbArc
 50
2.5473541040764429
 51
92.547354104921652
  0
LINE
  5
2A5
330
1F
100
AcDbEntity
  8
0
 62
7
100
AcDbLine
 10
349.40221026400559
 20
856.13552229418212
 30
0
 11
334.41703260164604
 21
855.468846222756
 31
0
  0
ARC
  5
2A6
330
1F
100
AcDbEntity
  8
0
 62
7
100
AcDbCircle
 10
334.63925817389054
 20
850.473787084463
 30
0
 40
5
100
AcDbArc
 50
92.547356608969025
 51
182.54735410449567
  0
LINE
  5
2A7
330
1F
100
AcDbEntity
  8
0
 62
7
100
AcDbLine
 10
329.64419902588406
 20
850.251561730559
 30
0
 11
332.084233954296
 21
795.40580009047983
 31
0
  0
ARC
  5
2A8
330
1F
100
AcDbEntity
  8
0
 62
7
100
AcDbCircle
 10
337.07929310239933
 20
795.62802544448925
 30
0
 40
5.00000000010149
100
AcDbArc
 50
182.54735410565411
 51
272.54735410333308
  0
LINE
  5
2A9
330
1F
100
AcDbEntity
  8
0
 62
7
100
AcDbLine
 10
337.3015184562064
 20
790.63296629637728
 30
0
 11
523.86697763057919
 21
798.93308326454019
 31
0
  0
ARC
  5
2AA
330
1F
100
AcDbEntity
  8
0
 62
7
100
AcDbCircle
 10
524.08920298814883
 20
793.93802411669742
 30
0
 40
5.00000000000002
100
AcDbArc
 50
2.5473591554852888
 51
92.547354146543569
  0
LINE
  5
2AB
330
1F
100
AcDbEntity
  8
0
 62
7
100
AcDbLine
 10
529.08426211656433
 20
794.16024991094775
 30
0
 11
529.09759511484708
 21
793.8605581166895
 31
0
  0
ARC
  5
2AC
330
1F
100
AcDbEntity
  8
0
 62
7
100
AcDbCircle
 10
534.09265426288857
 20
794.08278347063253
 30
0
 40
5.00000000003686
100
AcDbArc
 50
182.54735410492555
 51
272.54735410407534
  0
LINE
  5
2AD
330
1F
100
AcDbEntity
  8
0
 62
7
100
AcDbLine
 10
534.31487961675748
 20
789.08772432258786
 30
0
 11
549.30005706077691
 21
789.75440038430054
 31
0
  0
ARC
  5
2AE
330
1F
100
AcDbEntity
  8
0
 62
7
100
AcDbCircle
 10
549.07783170687253
 20
794.749459532307
 30
0
 40
5
100
AcDbArc
 50
272.54735410450087
 51
2.5473616179268053
  0
LINE
  5
2AF
330
1F
100
AcDbEntity
  8
0
 62
7
100
AcDbLine
 10
554.07289082573743
 20
794.97168554123357
 30
0
 11
552.94843110666534
 21
820.24667198015425
 31
0
  0
ARC
  5
2B0
330
1F
100
AcDbEntity
  8
0
 62
7
100
AcDbCircle
 10
547.95337195865886
 20
820.02444662624941
 30
0
 40
5.00000000000002
100
AcDbArc
 50
2.5473541045060828
 51
92.547354146543114
  0
LINE
  5
2B1
330
1F
100
AcDbEntity
  8
0
 62
7
100
AcDbLine
 10
547.73114660108922
 20
825.01950577409309
 30
0
 11
361.16568742671689
 21
816.71938880593109
 31
0
  0
ARC
  5
2B2
330
1F
100
AcDbEntity
  8
0
 62
7
100
AcDbCircle
 10
360.84237783148592
 20
821.70892494725933
 30
0
 40
4.9999999999994
100
AcDbArc
 50
170.99840869956202
 51
273.70744169397091
  0
CIRCLE
  5
2B3
330
1F
100
AcDbEntity
  8
0
 62
7
100
AcDbCircle
 10
413.6645608826384
 20
801.03720828601774
 30
0
 40
3.58
  0
CIRCLE
  5
2B4
330
1F
100
AcDbEntity
  8
0
 62
7
100
AcDbCircle
 10
342.32073709036285
 20
846.56135532693509
 30
0
 40
3.58
  0
LINE
  5
2B5
330
1F
100
AcDbEntity
  8
0
 62
7
100
AcDbLine
 10
542.99842594969641
 20
796.40089180961434
 30
0
 11
544.99645009623691
 21
796.48978197285771
 31
0
  0
ARC
  5
2B6
330
1F
100
AcDbEntity
  8
0
 62
7
100
AcDbCircle
 10
544.74843674323211
 20
802.0642675434575
 30
0
 40
5.5800000000088
100
AcDbArc
 50
272.54745542765738
 51
92.54725779030521
  0
LINE
  5
2B7
330
1F
100
AcDbEntity
  8
0
 62
7
100
AcDbLine
 10
544.50044261898483
 20
807.6387539695271
 30
0
 11
542.50241944711888
 21
807.54986384964661
 31
0
  0
ARC
  5
2B8
330
1F
100
AcDbEntity
  8
0
 62
7
100
AcDbCircle
 10
542.750432950138
 20
801.97537828571978
 30
0
 40
5.58000000000994
100
AcDbArc
 50
92.547456969536825
 51
272.54724623050851
  0
LINE
  5
2B9
330
1F
100
AcDbEntity
  8
0
 62
7
100
AcDbLine
 10
431.49999963883192
 20
749.44521742910013
 30
0
 11
494.000000079614
 21
749.445217428991
 31
0
  0
ARC
  5
2BA
330
1F
100
AcDbEntity
  8
0
 62
7
100
AcDbCircle
 10
494.00000007987273
 20
744.44521742925838
 30
0
 40
4.99999999973235
100
AcDbArc
 50
359.99999999683172
 51
90.000000002965081
  0
LINE
  5
2BB
330
1F
100
AcDbEntity
  8
0
 62
7
100
AcDbLine
 10
499.00000007960489
 20
744.44521742898189
 30
0
 11
499.00000007942663
 21
642.19521721231024
 31
0
  0
ARC
  5
2BC
330
1F
100
AcDbEntity
  8
0
 62
7
100
AcDbCircle
 10
494.00000007942663
 20
642.195217428991
 30
0
 40
5
100
AcDbArc
 50
269.999999999901
 51
359.99999751702154
  0
LINE
  5
2BD
330
1F
100
AcDbEntity
  8
0
 62
7
100
AcDbLine
 10
494.000000079418
 20
637.195217428991
 30
0
 11
485.22497587609041
 21
637.19521742900463
 31
0
  0
ARC
  5
2BE
330
1F
100
AcDbEntity
  8
0
 62
7
100
AcDbCircle
 10
485.22497566534685
 20
632.19521742900463
 30
0
 40
5
100
AcDbArc
 50
89.999997585056633
 51
179.99999999989578
  0
LINE
  5
2BF
330
1F
100
AcDbEntity
  8
0
 62
7
100
AcDbLine
 10
480.22497566534685
 20
632.19521742901372
 30
0
 11
480.22497566528591
 21
597.19521743268353
 31
0
  0
ARC
  5
2C0
330
1F
100
AcDbEntity
  8
0
 62
7
100
AcDbCircle
 10
485.22497566528591
 20
597.19521742900645
 30
0
 40
5.00000000000002
100
AcDbArc
 50
179.99999995786368
 51
269.999999999901
  0
LINE
  5
2C1
330
1F
100
AcDbEntity
  8
0
 62
7
100
AcDbLine
 10
485.22497566527727
 20
592.19521742900645
 30
0
 11
494.00000007933932
 21
592.195217428991
 31
0
  0
ARC
  5
2C2
330
1F
100
AcDbEntity
  8
0
 62
7
100
AcDbCircle
 10
494.00000007945664
 20
587.1952174291165
 30
0
 40
4.99999999987383
100
AcDbArc
 50
359.99999999844715
 51
90.000000001344446
  0
LINE
  5
2C3
330
1F
100
AcDbEntity
  8
0
 62
7
100
AcDbLine
 10
499.00000007933068
 20
587.195217428981
 30
0
 11
499.00000007926292
 21
548.4452479502271
 31
0
  0
ARC
  5
2C4
330
1F
100
AcDbEntity
  8
0
 62
7
100
AcDbCircle
 10
504.00000007889867
 20
548.44524794618712
 30
0
 40
4.99999999963572
100
AcDbArc
 50
179.9999999537053
 51
269.9999949530951
  0
LINE
  5
2C5
330
1F
100
AcDbEntity
  8
0
 62
7
100
AcDbLine
 10
503.99999963847313
 20
543.44524794655183
 30
0
 11
579.9999994254681
 21
543.445247946419
 31
0
  0
ARC
  5
2C6
330
1F
100
AcDbEntity
  8
0
 62
7
100
AcDbCircle
 10
580.00000007926292
 20
548.445247946419
 30
0
 40
5
100
AcDbArc
 50
269.99999250806331
 51
359.99999999989581
  0
LINE
  5
2C7
330
1F
100
AcDbEntity
  8
0
 62
7
100
AcDbLine
 10
585.00000007926292
 20
548.44524794641
 30
0
 11
585.00000007964854
 21
769.44521742883182
 31
0
  0
ARC
  5
2C8
330
1F
100
AcDbEntity
  8
0
 62
7
100
AcDbCircle
 10
580.00000007979679
 20
769.44521742898826
 30
0
 40
4.99999999985213
100
AcDbArc
 50
359.99999999820739
 51
90.000000001599787
  0
LINE
  5
2C9
330
1F
100
AcDbEntity
  8
0
 62
7
100
AcDbLine
 10
580.00000007965718
 20
774.44521742884092
 30
0
 11
431.50000029039211
 21
774.44521742910013
 31
0
  0
ARC
  5
2CA
330
1F
100
AcDbEntity
  8
0
 62
7
100
AcDbCircle
 10
431.50000007964854
 20
769.44521742910013
 30
0
 40
5
100
AcDbArc
 50
89.999997585056633
 51
179.99999758506706
  0
LINE
  5
2CB
330
1F
100
AcDbEntity
  8
0
 62
7
100
AcDbLine
 10
426.50000007964854
 20
769.44521763984278
 30
0
 11
426.50000007962262
 21
754.44521742910831
 31
0
  0
ARC
  5
2CC
330
1F
100
AcDbEntity
  8
0
 62
7
100
AcDbCircle
 10
431.50000007962262
 20
754.44521742910013
 30
0
 40
5.00000000000002
100
AcDbArc
 50
179.99999999990621
 51
269.99999494891063
  0
CIRCLE
  5
2CD
330
1F
100
AcDbEntity
  8
0
 62
7
100
AcDbCircle
 10
506.00000007928065
 20
558.44524794654819
 30
0
 40
3.58
  0
CIRCLE
  5
2CE
330
1F
100
AcDbEntity
  8
0
 62
7
100
AcDbCircle
 10
549.80000313102846
 20
552.79522353240839
 30
0
 40
3.58
  0
CIRCLE
  5
2CF
330
1F
100
AcDbEntity
  8
0
 62
7
100
AcDbCircle
 10
506.00000007964536
 20
767.44521742897007
 30
0
 40
3.58
  0
CIRCLE
  5
2D0
330
1F
100
AcDbEntity
  8
0
 62
7
100
AcDbCircle
 10
439.00000007964127
 20
765.19521742908648
 30
0
 40
3.58
  0
LINE
  5
2D1
330
1F
100
AcDbEntity
  8
0
 62
7
100
AcDbLine
 10
567.920015338359
 20
723.945217228663
 30
0
 11
567.92001533835582
 21
721.94521762905981
 31
0
  0
ARC
  5
2D2
330
1F
100
AcDbEntity
  8
0
 62
7
100
AcDbCircle
 10
572.50001533835575
 20
721.94522520057683
 30
0
 40
4.58000000000607
100
AcDbArc
 50
180.00009471964398
 51
359.99990027118832
  0
LINE
  5
2D3
330
1F
100
AcDbEntity
  8
0
 62
7
100
AcDbLine
 10
577.08001533835477
 20
721.94521722864658
 30
0
 11
577.08001533835841
 21
723.94521762904344
 31
0
  0
ARC
  5
2D4
330
1F
100
AcDbEntity
  8
0
 62
7
100
AcDbCircle
 10
572.500015338358
 20
723.94523156897969
 30
0
 40
4.57999999997765
100
AcDbArc
 50
359.99982561145987
 51
180.00017939729824
  0
LINE
  5
2D5
330
1F
100
AcDbEntity
  8
0
 62
7
100
AcDbLine
 10
567.92001533818484
 20
623.945217228663
 30
0
 11
567.9200153381812
 21
621.94521762905981
 31
0
  0
ARC
  5
2D6
330
1F
100
AcDbEntity
  8
0
 62
7
100
AcDbCircle
 10
572.50001533818113
 20
621.94523844175194
 30
0
 40
4.58000000004768
100
AcDbArc
 50
180.00026036668541
 51
359.99973462414687
  0
LINE
  5
2D7
330
1F
100
AcDbEntity
  8
0
 62
7
100
AcDbLine
 10
577.08001533818015
 20
621.94521722864658
 30
0
 11
577.08001533818378
 21
623.94521762904344
 31
0
  0
ARC
  5
2D8
330
1F
100
AcDbEntity
  8
0
 62
7
100
AcDbCircle
 10
572.50001533818386
 20
623.94524060961987
 30
0
 40
4.57999999994081
100
AcDbArc
 50
359.99971251309165
 51
180.00029249566646
  0
LINE
  5
2D9
330
1F
100
AcDbEntity
  8
0
 62
7
100
AcDbLine
 10
567.92001533807979
 20
563.94524774624108
 30
0
 11
567.92001533807661
 21
561.94524814663794
 31
0
  0
ARC
  5
2DA
330
1F
100
AcDbEntity
  8
0
 62
7
100
AcDbCircle
 10
572.50001533807563
 20
561.94523595848671
 30
0
 40
4.57999999998379
100
AcDbArc
 50
179.99984752628262
 51
0.00014746454969513496
  0
LINE
  5
2DB
330
1F
100
AcDbEntity
  8
0
 62
7
100
AcDbLine
 10
577.08001533807555
 20
561.94524774622471
 30
0
 11
577.08001533807874
 21
563.94524814662157
 31
0
  0
ARC
  5
2DC
330
1F
100
AcDbEntity
  8
0
 62
7
100
AcDbCircle
 10
572.50001533808017
 20
563.94522890967448
 30
0
 40
4.58000000003904
100
AcDbArc
 50
0.00024065412195007534
 51
179.99976435463614
  0
ARC
  5
2DD
330
1F
100
AcDbEntity
  8
0
 62
7
100
AcDbCircle
 10
506.22497594102879
 20
614.69521742896916
 30
0
 40
5.58
100
AcDbArc
 50
270.00000221986221
 51
90.000012890870082
  0
LINE
  5
2DE
330
1F
100
AcDbEntity
  8
0
 62
7
100
AcDbLine
 10
506.22497468559504
 20
620.27521742897
 30
0
 11
504.22497566532638
 21
620.27521742897181
 31
0
  0
ARC
  5
2DF
330
1F
100
AcDbEntity
  8
0
 62
7
100
AcDbCircle
 10
504.22499166433226
 20
614.69521742897189
 30
0
 40
5.58000000002312
100
AcDbArc
 50
90.000164278765851
 51
269.99983067004132
  0
LINE
  5
2E0
330
1F
100
AcDbEntity
  8
0
 62
7
100
AcDbLine
 10
504.22497517339389
 20
609.11521742897287
 30
0
 11
506.22497615721977
 21
609.11521742896923
 31
0
  0
LINE
  5
2E1
330
1F
100
AcDbEntity
  8
0
 62
7
100
AcDbLine
 10
228.68810990681777
 20
729.75118864073931
 30
0
 11
291.1846303544794
 21
729.09165317334475
 31
0
  0
ARC
  5
2E2
330
1F
100
AcDbEntity
  8
0
 62
7
100
AcDbCircle
 10
291.13186751773037
 20
724.0919315730572
 30
0
 40
4.99999999973235
100
AcDbArc
 50
359.39537119972766
 51
89.395371205866553
  0
LINE
  5
2E3
330
1F
100
AcDbEntity
  8
0
 62
7
100
AcDbLine
 10
296.13158911801247
 20
724.03916873577248
 30
0
 11
295.05258909867825
 21
621.79486178781747
 31
0
  0
ARC
  5
2E4
330
1F
100
AcDbEntity
  8
0
 62
7
100
AcDbCircle
 10
290.0528675004125
 20
621.84762484149735
 30
0
 40
5
100
AcDbArc
 50
269.39537120279829
 51
359.395368719916
  0
LINE
  5
2E5
330
1F
100
AcDbEntity
  8
0
 62
7
100
AcDbLine
 10
290.0001046633929
 20
616.84790324094422
 30
0
 11
281.22556905244392
 21
616.94050227532
 31
0
  0
ARC
  5
2E6
330
1F
100
AcDbEntity
  8
0
 62
7
100
AcDbCircle
 10
281.17280600470167
 20
611.94078067699149
 30
0
 40
5
100
AcDbArc
 50
89.395368787960066
 51
179.39537120280343
  0
LINE
  5
2E7
330
1F
100
AcDbEntity
  8
0
 62
7
100
AcDbLine
 10
276.173084404149
 20
611.99354351401064
 30
0
 11
275.80374454505181
 21
576.995492313814
 31
0
  0
ARC
  5
2E8
330
1F
100
AcDbEntity
  8
0
 62
7
100
AcDbCircle
 10
280.80346614556538
 20
576.942729473126
 30
0
 40
5.00000000000002
100
AcDbArc
 50
179.39537116075854
 51
269.3953712028034
  0
LINE
  5
2E9
330
1F
100
AcDbEntity
  8
0
 62
7
100
AcDbLine
 10
280.75070330854624
 20
571.94300787257373
 30
0
 11
289.52523913021787
 21
571.85040883597333
 31
0
  0
ARC
  5
2EA
330
1F
100
AcDbEntity
  8
0
 62
7
100
AcDbCircle
 10
289.47247629332605
 20
566.85068723554571
 30
0
 40
4.99999999987383
100
AcDbArc
 50
359.39537120134986
 51
89.39537120424734
  0
LINE
  5
2EB
330
1F
100
AcDbEntity
  8
0
 62
7
100
AcDbLine
 10
294.47219789375094
 20
566.797924398401
 30
0
 11
294.06328622892761
 21
528.05011251366716
 31
0
  0
ARC
  5
2EC
330
1F
100
AcDbEntity
  8
0
 62
7
100
AcDbCircle
 10
299.06300782907329
 20
527.99734967262077
 30
0
 40
4.99999999963572
100
AcDbArc
 50
179.395371156608
 51
269.39536615599553
  0
LINE
  5
2ED
330
1F
100
AcDbEntity
  8
0
 62
7
100
AcDbLine
 10
299.01024455166544
 20
522.99762807707987
 30
0
 11
375.00601266706781
 21
522.195632956632
 31
0
  0
ARC
  5
2EE
330
1F
100
AcDbEntity
  8
0
 62
7
100
AcDbCircle
 10
375.05877615783675
 20
527.19535455028483
 30
0
 40
5
100
AcDbArc
 50
269.3953637109654
 51
359.39537120280346
  0
LINE
  5
2EF
330
1F
100
AcDbEntity
  8
0
 62
7
100
AcDbLine
 10
380.05849775838942
 20
527.14259171326569
 30
0
 11
382.39061483261
 21
748.1302559418001
 31
0
  0
ARC
  5
2F0
330
1F
100
AcDbEntity
  8
0
 62
7
100
AcDbCircle
 10
377.39089323220696
 20
748.18301877896567
 30
0
 40
4.99999999985213
100
AcDbArc
 50
359.39537120110754
 51
89.395371204494907
  0
LINE
  5
2F1
330
1F
100
AcDbEntity
  8
0
 62
7
100
AcDbLine
 10
377.44365606907695
 20
753.18274037937238
 30
0
 11
228.95192474339547
 21
754.74979663662555
 31
0
  0
ARC
  5
2F2
330
1F
100
AcDbEntity
  8
0
 62
7
100
AcDbCircle
 10
228.89916169565322
 20
749.750075038297
 30
0
 40
5
100
AcDbArc
 50
89.395368787960066
 51
179.39536878795485
  0
LINE
  5
2F3
330
1F
100
AcDbEntity
  8
0
 62
7
100
AcDbLine
 10
223.89944009732471
 20
749.80283808603974
 30
0
 11
223.74115158404265
 21
734.80367307365952
 31
0
  0
ARC
  5
2F4
330
1F
100
AcDbEntity
  8
0
 62
7
100
AcDbCircle
 10
228.74087318459488
 20
734.75091023664038
 30
0
 40
5.00000000000002
100
AcDbArc
 50
179.3953712028034
 51
269.395366151808
  0
CIRCLE
  5
2F5
330
1F
100
AcDbEntity
  8
0
 62
7
100
AcDbCircle
 10
301.16842214370126
 20
537.97568773927753
 30
0
 40
3.58
  0
CIRCLE
  5
2F6
330
1F
100
AcDbEntity
  8
0
 62
7
100
AcDbCircle
 10
344.90636415266454
 20
531.86377543345509
 30
0
 40
3.58
  0
CIRCLE
  5
2F7
330
1F
100
AcDbEntity
  8
0
 62
7
100
AcDbCircle
 10
303.37390840907528
 20
746.96402012648662
 30
0
 40
3.58
  0
CIRCLE
  5
2F8
330
1F
100
AcDbEntity
  8
0
 62
7
100
AcDbCircle
 10
236.35389568501523
 20
745.421167422298
 30
0
 40
3.58
  0
LINE
  5
2F9
330
1F
100
AcDbEntity
  8
0
 62
7
100
AcDbLine
 10
364.83143928407389
 20
702.81302686682477
 30
0
 11
364.81033415349157
 21
700.81313862697891
 31
0
  0
ARC
  5
2FA
330
1F
100
AcDbEntity
  8
0
 62
7
100
AcDbCircle
 10
369.39007921949633
 20
700.764815439372
 30
0
 40
4.58000000000607
100
AcDbArc
 50
179.39546592253737
 51
359.39527147409763
  0
LINE
  5
2FB
330
1F
100
AcDbEntity
  8
0
 62
7
100
AcDbLine
 10
373.9698241214769
 20
700.71647670918458
 30
0
 11
373.99092926051026
 21
702.71636574978049
 31
0
  0
ARC
  5
2FC
330
1F
100
AcDbEntity
  8
0
 62
7
100
AcDbCircle
 10
369.41118442150628
 20
702.764710447642
 30
0
 40
4.57999999997765
100
AcDbArc
 50
359.39519681436519
 51
179.39555060020734
  0
LINE
  5
2FD
330
1F
100
AcDbEntity
  8
0
 62
7
100
AcDbLine
 10
363.77618254368508
 20
602.81859485577854
 30
0
 11
363.7550774131023
 21
600.81870661593177
 31
0
  0
ARC
  5
2FE
330
1F
100
AcDbEntity
  8
0
 62
7
100
AcDbCircle
 10
368.33482261883591
 20
600.77039666876328
 30
0
 40
4.58000000004768
100
AcDbArc
 50
179.39563156958604
 51
359.39510582704906
  0
LINE
  5
2FF
330
1F
100
AcDbEntity
  8
0
 62
7
100
AcDbLine
 10
372.91456738108809
 20
600.72204469813744
 30
0
 11
372.935672520121
 21
602.72193373873336
 31
0
  0
ARC
  5
300
330
1F
100
AcDbEntity
  8
0
 62
7
100
AcDbCircle
 10
368.35592777651937
 20
602.770287476732
 30
0
 40
4.57999999994081
100
AcDbArc
 50
359.39508371599157
 51
179.39566369856954
  0
LINE
  5
301
330
1F
100
AcDbEntity
  8
0
 62
7
100
AcDbLine
 10
363.14302882149059
 20
542.82196616502927
 30
0
 11
363.12192369090781
 21
540.8220779251825
 31
0
  0
ARC
  5
302
330
1F
100
AcDbEntity
  8
0
 62
7
100
AcDbCircle
 10
367.70166854839681
 20
540.77373497900874
 30
0
 40
4.57999999998379
100
AcDbArc
 50
179.39521872919067
 51
359.39551866744443
  0
LINE
  5
303
330
1F
100
AcDbEntity
  8
0
 62
7
100
AcDbLine
 10
372.2814136588936
 20
540.72541600738816
 30
0
 11
372.3025187979265
 21
542.72530504798408
 31
0
  0
ARC
  5
304
330
1F
100
AcDbEntity
  8
0
 62
7
100
AcDbCircle
 10
367.72277360882254
 20
542.7736165708103
 30
0
 40
4.58000000003904
100
AcDbArc
 50
359.395611857017
 51
179.39513555754408
  0
ARC
  5
305
330
1F
100
AcDbEntity
  8
0
 62
7
100
AcDbCircle
 10
301.98696707315
 20
594.22015115666829
 30
0
 40
5.58
100
AcDbArc
 50
269.39537342276373
 51
89.395384093768115
  0
LINE
  5
306
330
1F
100
AcDbEntity
  8
0
 62
7
100
AcDbLine
 10
302.04584914389034
 20
599.799840476133
 30
0
 11
300.04596148334622
 21
599.82094560060079
 31
0
  0
ARC
  5
307
330
1F
100
AcDbEntity
  8
0
 62
7
100
AcDbCircle
 10
299.98709415535723
 20
594.24125612555338
 30
0
 40
5.58000000002312
100
AcDbArc
 50
89.39553548166495
 51
269.39520187293977
  0
LINE
  5
308
330
1F
100
AcDbEntity
  8
0
 62
7
100
AcDbLine
 10
299.92819433923296
 20
588.66156699336
 30
0
 11
301.92808396322516
 21
588.64046184817028
 31
0
  0
LINE
  5
309
330
1F
100
AcDbEntity
  8
0
 62
7
100
AcDbLine
 10
541.50037863883153
 20
537.28250223106
 30
0
 11
479.00044555265322
 21
537.37425908895159
 31
0
  0
ARC
  5
30A
330
1F
100
AcDbEntity
  8
0
 62
7
100
AcDbCircle
 10
479.00778610096449
 20
542.37425370031553
 30
0
 40
4.99999999973235
100
AcDbArc
 50
179.91588347613578
 51
269.91588348226918
  0
LINE
  5
30B
330
1F
100
AcDbEntity
  8
0
 62
7
100
AcDbLine
 10
474.007791489601
 20
542.381594249162
 30
0
 11
474.15790570837
 21
644.6314842737039
 31
0
  0
ARC
  5
30C
330
1F
100
AcDbEntity
  8
0
 62
7
100
AcDbCircle
 10
479.15790031968345
 20
644.62414350845222
 30
0
 40
5
100
AcDbArc
 50
89.915883479199181
 51
179.91588099631704
  0
LINE
  5
30D
330
1F
100
AcDbEntity
  8
0
 62
7
100
AcDbLine
 10
479.165240868263
 20
649.62413812008447
 30
0
 11
487.94025561497847
 21
649.61125542179445
 31
0
  0
ARC
  5
30E
330
1F
100
AcDbEntity
  8
0
 62
7
100
AcDbCircle
 10
487.94759637429206
 20
654.61125003311747
 30
0
 40
5
100
AcDbArc
 50
269.91588106436262
 51
359.91588347919395
  0
LINE
  5
30F
330
1F
100
AcDbEntity
  8
0
 62
7
100
AcDbLine
 10
492.94759098592385
 20
654.60390948453744
 30
0
 11
492.998974825975
 21
689.60387176228971
 31
0
  0
ARC
  5
310
330
1F
100
AcDbEntity
  8
0
 62
7
100
AcDbCircle
 10
487.99898021434865
 20
689.61121231453865
 30
0
 40
5.00000000000002
100
AcDbArc
 50
359.91588343715142
 51
89.915883479199167
  0
LINE
  5
311
330
1F
100
AcDbEntity
  8
0
 62
7
100
AcDbLine
 10
488.00632076292823
 20
694.61120692617
 30
0
 11
479.23130580547877
 21
694.62408962477014
 31
0
  0
ARC
  5
312
330
1F
100
AcDbEntity
  8
0
 62
7
100
AcDbCircle
 10
479.23864635393193
 20
699.624084236276
 30
0
 40
4.99999999987383
100
AcDbArc
 50
179.9158834777536
 51
269.91588348064573
  0
LINE
  5
313
330
1F
100
AcDbEntity
  8
0
 62
7
100
AcDbLine
 10
474.23865174242655
 20
699.6314247849815
 30
0
 11
474.29554094910918
 21
738.38135250391508
 31
0
  0
ARC
  5
314
330
1F
100
AcDbEntity
  8
0
 62
7
100
AcDbCircle
 10
469.29554633784755
 20
738.38869305652509
 30
0
 40
4.99999999963572
100
AcDbArc
 50
359.91588343300771
 51
89.915878432397335
  0
LINE
  5
315
330
1F
100
AcDbEntity
  8
0
 62
7
100
AcDbLine
 10
469.30288732684267
 20
743.388687667146
 30
0
 11
393.30296944304473
 21
743.50026400524177
 31
0
  0
ARC
  5
316
330
1F
100
AcDbEntity
  8
0
 62
7
100
AcDbCircle
 10
393.29562824067989
 20
738.50026939457
 30
0
 40
5
100
AcDbArc
 50
89.915875987363833
 51
179.91588347920438
  0
LINE
  5
317
330
1F
100
AcDbEntity
  8
0
 62
7
100
AcDbLine
 10
388.29563362904855
 20
738.50760994314908
 30
0
 11
387.97118142663749
 21
517.50787862657137
 31
0
  0
ARC
  5
318
330
1F
100
AcDbEntity
  8
0
 62
7
100
AcDbCircle
 10
392.97117603812103
 20
517.500538077844
 30
0
 40
4.99999999985213
100
AcDbArc
 50
179.91588347750309
 51
269.9158834808955
  0
LINE
  5
319
330
1F
100
AcDbEntity
  8
0
 62
7
100
AcDbLine
 10
392.9638354896897
 20
512.50054346636
 30
0
 11
541.46367524441848
 21
512.28252917385828
 31
0
  0
ARC
  5
31A
330
1F
100
AcDbEntity
  8
0
 62
7
100
AcDbCircle
 10
541.47101600373207
 20
517.28252378518039
 30
0
 40
5
100
AcDbArc
 50
269.91588106436262
 51
359.91588106436262
  0
LINE
  5
31B
330
1F
100
AcDbEntity
  8
0
 62
7
100
AcDbLine
 10
546.47101061505464
 20
517.2751830258668
 30
0
 11
546.4930322611026
 21
532.27516707149618
 31
0
  0
ARC
  5
31C
330
1F
100
AcDbEntity
  8
0
 62
7
100
AcDbCircle
 10
541.49303764947081
 20
532.28250762007531
 30
0
 40
5.00000000000002
100
AcDbArc
 50
359.91588347920441
 51
89.915878428213816
  0
CIRCLE
  5
31D
330
1F
100
AcDbEntity
  8
0
 62
7
100
AcDbCircle
 10
467.28086739567107
 20
728.39164005232954
 30
0
 40
3.58
  0
CIRCLE
  5
31E
330
1F
100
AcDbEntity
  8
0
 62
7
100
AcDbCircle
 10
423.48920640175947
 20
734.10596158754663
 30
0
 40
3.58
  0
CIRCLE
  5
31F
330
1F
100
AcDbEntity
  8
0
 62
7
100
AcDbCircle
 10
466.97403250985053
 20
519.39189580366758
 30
0
 40
3.58
  0
CIRCLE
  5
320
330
1F
100
AcDbEntity
  8
0
 62
7
100
AcDbCircle
 10
533.97726355257691
 20
521.54353002793607
 30
0
 40
3.58
  0
LINE
  5
321
330
1F
100
AcDbEntity
  8
0
 62
7
100
AcDbLine
 10
405.11794675356532
 20
562.98275450107315
 30
0
 11
405.12088297240916
 21
564.98275194532937
 31
0
  0
ARC
  5
322
330
1F
100
AcDbEntity
  8
0
 62
7
100
AcDbCircle
 10
400.54088789703883
 20
564.98946831631122
 30
0
 40
4.58000000000607
100
AcDbArc
 50
359.9159781989456
 51
179.9157837504965
  0
LINE
  5
323
330
1F
100
AcDbEntity
  8
0
 62
7
100
AcDbLine
 10
395.96089284448863
 20
564.996200230723
 30
0
 11
395.95795662446926
 21
562.996201985674
 31
0
  0
ARC
  5
324
330
1F
100
AcDbEntity
  8
0
 62
7
100
AcDbCircle
 10
400.5379516682583
 20
562.98946410326255
 30
0
 40
4.57999999997765
100
AcDbArc
 50
179.91570909076725
 51
359.91606287660005
  0
LINE
  5
325
330
1F
100
AcDbEntity
  8
0
 62
7
100
AcDbLine
 10
405.2647577251555
 20
662.98264673370807
 30
0
 11
405.26769394399935
 21
664.98264417796429
 31
0
  0
ARC
  5
326
330
1F
100
AcDbEntity
  8
0
 62
7
100
AcDbCircle
 10
400.68769884918947
 20
664.98934730778558
 30
0
 40
4.58000000004768
100
AcDbArc
 50
359.91614384598347
 51
179.91561810345863
  0
LINE
  5
327
330
1F
100
AcDbEntity
  8
0
 62
7
100
AcDbLine
 10
396.10770381607881
 20
664.996092463358
 30
0
 11
396.10476759605945
 21
662.99609421830894
 31
0
  0
ARC
  5
328
330
1F
100
AcDbEntity
  8
0
 62
7
100
AcDbCircle
 10
400.68476262657578
 20
662.98934729526729
 30
0
 40
4.57999999994081
100
AcDbArc
 50
179.9155959924023
 51
359.91617597496503
  0
LINE
  5
329
330
1F
100
AcDbEntity
  8
0
 62
7
100
AcDbLine
 10
405.35284426330645
 20
722.98255155574327
 30
0
 11
405.35578048215029
 21
724.98254899999949
 31
0
  0
ARC
  5
32A
330
1F
100
AcDbEntity
  8
0
 62
7
100
AcDbCircle
 10
400.77578543579011
 20
724.98928513062867
 30
0
 40
4.57999999998379
100
AcDbArc
 50
359.91573100557952
 51
179.91603094385124
  0
LINE
  5
32B
330
1F
100
AcDbEntity
  8
0
 62
7
100
AcDbLine
 10
396.19579035422976
 20
724.99599728539408
 30
0
 11
396.19285413420994
 21
722.995999040345
 31
0
  0
ARC
  5
32C
330
1F
100
AcDbEntity
  8
0
 62
7
100
AcDbCircle
 10
400.7728492267056
 20
722.98929433478054
 30
0
 40
4.58000000003904
100
AcDbArc
 50
179.9161241334215
 51
359.91564783393443
  0
ARC
  5
32D
330
1F
100
AcDbEntity
  8
0
 62
7
100
AcDbCircle
 10
466.97331064975515
 20
672.14206147826565
 30
0
 40
5.58
100
AcDbArc
 50
89.915885699162075
 51
269.91589637017216
  0
LINE
  5
32E
330
1F
100
AcDbEntity
  8
0
 62
7
100
AcDbLine
 10
466.96511985298275
 20
666.562067489842
 30
0
 11
468.96511671790495
 21
666.559131271849
 31
0
  0
ARC
  5
32F
330
1F
100
AcDbEntity
  8
0
 62
7
100
AcDbCircle
 10
468.97329277112112
 20
672.13912528191861
 30
0
 40
5.58000000002312
100
AcDbArc
 50
269.91604775806763
 51
89.915714149338456
  0
LINE
  5
330
330
1F
100
AcDbEntity
  8
0
 62
7
100
AcDbLine
 10
468.981501314247
 20
677.719119244288
 30
0
 11
466.9815024857694
 21
677.72205546516409
 31
0
  0
LINE
  5
331
330
1F
100
AcDbEntity
  8
0
 62
7
100
AcDbLine
 10
30.006388045235781
 20
572.34231811177062
 30
0
 11
30.66697132283025
 21
634.83882749294492
 31
0
  0
ARC
  5
332
330
1F
100
AcDbEntity
  8
0
 62
7
100
AcDbCircle
 10
35.666692037798839
 20
634.78598083137979
 30
0
 40
4.99999999973235
100
AcDbArc
 50
89.394410584535123
 51
179.39441059065834
  0
LINE
  5
333
330
1F
100
AcDbEntity
  8
0
 62
7
100
AcDbLine
 10
35.719538699898294
 20
639.78570154634338
 30
0
 11
137.96382754307933
 21
638.70498730953034
 31
0
  0
ARC
  5
334
330
1F
100
AcDbEntity
  8
0
 62
7
100
AcDbCircle
 10
137.91098066458426
 20
633.70526659658765
 30
0
 40
5
100
AcDbArc
 50
359.3944105875953
 51
89.394408104717726
  0
LINE
  5
335
330
1F
100
AcDbEntity
  8
0
 62
7
100
AcDbLine
 10
142.91070137981797
 20
633.6524199347524
 30
0
 11
142.81795523248547
 21
624.87788587754233
 31
0
  0
ARC
  5
336
330
1F
100
AcDbEntity
  8
0
 62
7
100
AcDbCircle
 10
147.81767594549137
 20
624.82503900498534
 30
0
 40
5
100
AcDbArc
 50
179.39440817276707
 51
269.39441058760048
  0
LINE
  5
337
330
1F
100
AcDbEntity
  8
0
 62
7
100
AcDbLine
 10
147.76482928365658
 20
619.82531828975164
 30
0
 11
182.76287428662
 21
619.45539165694674
 31
0
  0
ARC
  5
338
330
1F
100
AcDbEntity
  8
0
 62
7
100
AcDbCircle
 10
182.81572095212368
 20
624.45511237214134
 30
0
 40
5.00000000000002
100
AcDbArc
 50
269.39441054555556
 51
359.39441058759525
  0
LINE
  5
339
330
1F
100
AcDbEntity
  8
0
 62
7
100
AcDbLine
 10
187.81544166735694
 20
624.4022657103061
 30
0
 11
187.90818781691723
 21
633.17679997823882
 31
0
  0
ARC
  5
33A
330
1F
100
AcDbEntity
  8
0
 62
7
100
AcDbCircle
 10
192.90790853202589
 20
633.12395331653181
 30
0
 40
4.99999999987383
100
AcDbArc
 50
89.394410586141575
 51
179.39441058904956
  0
LINE
  5
33B
330
1F
100
AcDbEntity
  8
0
 62
7
100
AcDbLine
 10
192.96075519398664
 20
638.12367403163728
 30
0
 11
231.70856021750342
 21
637.71411272500711
 31
0
  0
ARC
  5
33C
330
1F
100
AcDbEntity
  8
0
 62
7
100
AcDbCircle
 10
231.761406883365
 20
642.71383343983337
 30
0
 40
4.99999999963572
100
AcDbArc
 50
269.39441054141014
 51
359.39440554079164
  0
LINE
  5
33D
330
1F
100
AcDbEntity
  8
0
 62
7
100
AcDbLine
 10
236.7611275935792
 20
642.66098633760987
 30
0
 11
237.56439685121768
 21
718.65674099616274
 31
0
  0
ARC
  5
33E
330
1F
100
AcDbEntity
  8
0
 62
7
100
AcDbCircle
 10
232.56467614289431
 20
718.70958831174732
 30
0
 40
5
100
AcDbArc
 50
359.39440309576116
 51
89.394410587600476
  0
LINE
  5
33F
330
1F
100
AcDbEntity
  8
0
 62
7
100
AcDbLine
 10
232.61752280472911
 20
723.709309026981
 30
0
 11
11.629897707290638
 21
726.04513115752991
 31
0
  0
ARC
  5
340
330
1F
100
AcDbEntity
  8
0
 62
7
100
AcDbCircle
 10
11.577051045309872
 20
721.04541044244627
 30
0
 40
4.99999999985213
100
AcDbArc
 50
89.394410585909668
 51
179.39441058929708
  0
LINE
  5
341
330
1F
100
AcDbEntity
  8
0
 62
7
100
AcDbLine
 10
6.5773303302225941
 20
721.09825710413145
 30
0
 11
5.0077844759557593
 21
572.60655207242519
 31
0
  0
ARC
  5
342
330
1F
100
AcDbEntity
  8
0
 62
7
100
AcDbCircle
 10
10.007505188961659
 20
572.5537051998682
 30
0
 40
5
100
AcDbArc
 50
179.39440817276707
 51
269.39440817276193
  0
LINE
  5
343
330
1F
100
AcDbEntity
  8
0
 62
7
100
AcDbLine
 10
9.95465831640422
 20
567.55398448686185
 30
0
 11
24.953820672826623
 21
567.39544449912967
 31
0
  0
ARC
  5
344
330
1F
100
AcDbEntity
  8
0
 62
7
100
AcDbCircle
 10
25.006667334661415
 20
572.39516521436337
 30
0
 40
5.00000000000002
100
AcDbArc
 50
269.39441058760048
 51
359.39440553660415
  0
CIRCLE
  5
345
330
1F
100
AcDbEntity
  8
0
 62
7
100
AcDbCircle
 10
221.78310411727216
 20
644.819415049964
 30
0
 40
3.58
  0
CIRCLE
  5
346
330
1F
100
AcDbEntity
  8
0
 62
7
100
AcDbCircle
 10
227.89574972811351
 20
688.557254581082
 30
0
 40
3.58
  0
CIRCLE
  5
347
330
1F
100
AcDbEntity
  8
0
 62
7
100
AcDbCircle
 10
12.794808736393861
 20
647.02840519211
 30
0
 40
3.58
  0
CIRCLE
  5
348
330
1F
100
AcDbEntity
  8
0
 62
7
100
AcDbCircle
 10
14.336537789662088
 20
580.0083666101583
 30
0
 40
3.58
  0
LINE
  5
349
330
1F
100
AcDbEntity
  8
0
 62
7
100
AcDbLine
 10
56.94683238054904
 20
708.48519582741767
 30
0
 11
58.946720266267675
 21
708.46405716691527
 31
0
  0
ARC
  5
34A
330
1F
100
AcDbEntity
  8
0
 62
7
100
AcDbCircle
 10
58.995120237406354
 20
713.0438014220955
 30
0
 40
4.58000000000607
100
AcDbArc
 50
269.39450530734331
 51
89.394310858891828
  0
LINE
  5
34B
330
1F
100
AcDbEntity
  8
0
 62
7
100
AcDbLine
 10
59.043535751123727
 20
717.62354551299006
 30
0
 11
57.043647064655943
 21
717.64468418195622
 31
0
  0
ARC
  5
34C
330
1F
100
AcDbEntity
  8
0
 62
7
100
AcDbCircle
 10
56.995225583265892
 20
713.06494015413784
 30
0
 40
4.57999999997765
100
AcDbArc
 50
89.394236199163274
 51
269.39458998499964
  0
LINE
  5
34D
330
1F
100
AcDbEntity
  8
0
 62
7
100
AcDbLine
 10
156.941246685215
 20
707.42826259072092
 30
0
 11
158.94113457093363
 21
707.40712393021852
 31
0
  0
ARC
  5
34E
330
1F
100
AcDbEntity
  8
0
 62
7
100
AcDbCircle
 10
158.98952130163707
 20
711.98686832534906
 30
0
 40
4.58000000004768
100
AcDbArc
 50
269.39467095438141
 51
89.394145211853711
  0
LINE
  5
34F
330
1F
100
AcDbEntity
  8
0
 62
7
100
AcDbLine
 10
159.03795005578968
 20
716.56661227629331
 30
0
 11
157.03806136932189
 21
716.58775094525947
 31
0
  0
ARC
  5
350
330
1F
100
AcDbEntity
  8
0
 62
7
100
AcDbCircle
 10
156.98963084779689
 20
712.00800701299443
 30
0
 40
4.57999999994081
100
AcDbArc
 50
89.394123100798112
 51
269.39470308336479
  0
LINE
  5
351
330
1F
100
AcDbEntity
  8
0
 62
7
100
AcDbLine
 10
216.93786475214119
 20
706.79410297125389
 30
0
 11
218.93775263785983
 21
706.77296431075149
 31
0
  0
ARC
  5
352
330
1F
100
AcDbEntity
  8
0
 62
7
100
AcDbCircle
 10
218.98617236756263
 20
711.35270835708354
 30
0
 40
4.57999999998379
100
AcDbArc
 50
269.39425811398684
 51
89.394558052248286
  0
LINE
  5
353
330
1F
100
AcDbEntity
  8
0
 62
7
100
AcDbLine
 10
219.03456812271588
 20
715.93245265682629
 30
0
 11
217.0346794362481
 21
715.95359132579154
 31
0
  0
ARC
  5
354
330
1F
100
AcDbEntity
  8
0
 62
7
100
AcDbCircle
 10
216.98629112988783
 20
711.37384694731747
 30
0
 40
4.58000000003904
100
AcDbArc
 50
89.394651241820256
 51
269.3941749423426
  0
ARC
  5
355
330
1F
100
AcDbEntity
  8
0
 62
7
100
AcDbCircle
 10
165.5386544314274
 20
645.63890296823968
 30
0
 40
5.58
100
AcDbArc
 50
359.39441280756307
 51
179.394423478574
  0
LINE
  5
356
330
1F
100
AcDbEntity
  8
0
 62
7
100
AcDbLine
 10
159.95896609995771
 20
645.69787858747361
 30
0
 11
159.93782744557984
 21
643.69799128105763
 31
0
  0
ARC
  5
357
330
1F
100
AcDbEntity
  8
0
 62
7
100
AcDbCircle
 10
165.51751593287918
 20
643.63903040457183
 30
0
 40
5.58000000002312
100
AcDbArc
 50
179.39457486646489
 51
359.39424125774138
  0
LINE
  5
358
330
1F
100
AcDbEntity
  8
0
 62
7
100
AcDbLine
 10
171.0972040767806
 20
643.58003703995666
 30
0
 11
171.11834275191313
 21
645.57992630982073
 31
0
  0
LINE
  5
359
330
1F
100
AcDbEntity
  8
0
 62
7
100
AcDbLine
 10
244.79652590681781
 20
680.94816211177124
 30
0
 11
244.79652590681781
 21
618.44816167098918
 31
0
  0
ARC
  5
35A
330
1F
100
AcDbEntity
  8
0
 62
7
100
AcDbCircle
 10
239.79652590708565
 20
618.44816167072088
 30
0
 40
4.99999999973235
100
AcDbArc
 50
269.99999999693068
 51
3.0745022663294961E-09
  0
LINE
  5
35B
330
1F
100
AcDbEntity
  8
0
 62
7
100
AcDbLine
 10
239.79652590681781
 20
613.44816167098918
 30
0
 11
137.5465256901457
 21
613.44816167098918
 31
0
  0
ARC
  5
35C
330
1F
100
AcDbEntity
  8
0
 62
7
100
AcDbCircle
 10
137.54652590681781
 20
618.44816167098918
 30
0
 40
5
100
AcDbArc
 50
180
 51
269.99999751712056
  0
LINE
  5
35D
330
1F
100
AcDbEntity
  8
0
 62
7
100
AcDbLine
 10
132.54652590681781
 20
618.44816167098918
 30
0
 11
132.5465259068169
 21
627.2231858743163
 31
0
  0
ARC
  5
35E
330
1F
100
AcDbEntity
  8
0
 62
7
100
AcDbCircle
 10
127.5465259068169
 20
627.22318608505077
 30
0
 40
5
100
AcDbArc
 50
359.99999758516083
 51
90
  0
LINE
  5
35F
330
1F
100
AcDbEntity
  8
0
 62
7
100
AcDbLine
 10
127.5465259068169
 20
632.22318608505077
 30
0
 11
92.546525910486707
 21
632.22318608505077
 31
0
  0
ARC
  5
360
330
1F
100
AcDbEntity
  8
0
 62
7
100
AcDbCircle
 10
92.5465259068178
 20
627.22318608505077
 30
0
 40
5.00000000000002
100
AcDbArc
 50
89.999999957957485
 51
180
  0
LINE
  5
361
330
1F
100
AcDbEntity
  8
0
 62
7
100
AcDbLine
 10
87.5465259068178
 20
627.22318608505077
 30
0
 11
87.5465259068178
 21
618.44816167098918
 31
0
  0
ARC
  5
362
330
1F
100
AcDbEntity
  8
0
 62
7
100
AcDbCircle
 10
82.546525906943771
 20
618.44816167086276
 30
0
 40
4.99999999987383
100
AcDbArc
 50
269.99999999854612
 51
1.4486637796870277E-09
  0
LINE
  5
363
330
1F
100
AcDbEntity
  8
0
 62
7
100
AcDbLine
 10
82.5465259068169
 20
613.44816167098918
 30
0
 11
43.796556428062559
 21
613.44816167098918
 31
0
  0
ARC
  5
364
330
1F
100
AcDbEntity
  8
0
 62
7
100
AcDbCircle
 10
43.796556424031678
 20
608.448161671353
 30
0
 40
4.99999999963572
100
AcDbArc
 50
89.999999953809521
 51
179.99999495318892
  0
LINE
  5
365
330
1F
100
AcDbEntity
  8
0
 62
7
100
AcDbLine
 10
38.796556424395931
 20
608.44816211177033
 30
0
 11
38.796556424395476
 21
532.4481623247749
 31
0
  0
ARC
  5
366
330
1F
100
AcDbEntity
  8
0
 62
7
100
AcDbCircle
 10
43.796556424395476
 20
532.44816167098918
 30
0
 40
5
100
AcDbArc
 50
179.99999250816751
 51
270
  0
LINE
  5
367
330
1F
100
AcDbEntity
  8
0
 62
7
100
AcDbLine
 10
43.796556424395476
 20
527.44816167098918
 30
0
 11
264.79652590681781
 21
527.44816167098918
 31
0
  0
ARC
  5
368
330
1F
100
AcDbEntity
  8
0
 62
7
100
AcDbCircle
 10
264.7965259069656
 20
532.44816167084093
 30
0
 40
4.99999999985213
100
AcDbArc
 50
269.99999999830641
 51
1.6987927776260171E-09
  0
LINE
  5
369
330
1F
100
AcDbEntity
  8
0
 62
7
100
AcDbLine
 10
269.79652590681781
 20
532.44816167098918
 30
0
 11
269.79652590681781
 21
680.94816146025471
 31
0
  0
ARC
  5
36A
330
1F
100
AcDbEntity
  8
0
 62
7
100
AcDbCircle
 10
264.79652590681781
 20
680.94816167098918
 30
0
 40
5
100
AcDbArc
 50
359.99999758516083
 51
89.999997585160855
  0
LINE
  5
36B
330
1F
100
AcDbEntity
  8
0
 62
7
100
AcDbLine
 10
264.79652611755228
 20
685.94816167098918
 30
0
 11
249.79652590681781
 21
685.94816167098918
 31
0
  0
ARC
  5
36C
330
1F
100
AcDbEntity
  8
0
 62
7
100
AcDbCircle
 10
249.79652590681781
 20
680.94816167098918
 30
0
 40
5.00000000000002
100
AcDbArc
 50
90
 51
179.99999494900965
  0
CIRCLE
  5
36D
330
1F
100
AcDbEntity
  8
0
 62
7
100
AcDbCircle
 10
53.796556424395931
 20
606.44816167098918
 30
0
 40
3.58
  0
CIRCLE
  5
36E
330
1F
100
AcDbEntity
  8
0
 62
7
100
AcDbCircle
 10
48.146532010332976
 20
562.64815861923137
 30
0
 40
3.58
  0
CIRCLE
  5
36F
330
1F
100
AcDbEntity
  8
0
 62
7
100
AcDbCircle
 10
262.79652590681781
 20
606.44816167098918
 30
0
 40
3.58
  0
CIRCLE
  5
370
330
1F
100
AcDbEntity
  8
0
 62
7
100
AcDbCircle
 10
260.54652590681781
 20
673.44816167098918
 30
0
 40
3.58
  0
LINE
  5
371
330
1F
100
AcDbEntity
  8
0
 62
7
100
AcDbLine
 10
219.29652570661892
 20
544.52814641219913
 30
0
 11
217.29652610701578
 21
544.52814641219913
 31
0
  0
ARC
  5
372
330
1F
100
AcDbEntity
  8
0
 62
7
100
AcDbCircle
 10
217.29653367854053
 20
539.94814641219921
 30
0
 40
4.58000000000607
100
AcDbArc
 50
90.00009471974073
 51
269.9999002712907
  0
LINE
  5
373
330
1F
100
AcDbEntity
  8
0
 62
7
100
AcDbLine
 10
217.29652570661847
 20
535.36814641220019
 30
0
 11
219.29652610701578
 21
535.36814641220019
 31
0
  0
ARC
  5
374
330
1F
100
AcDbEntity
  8
0
 62
7
100
AcDbCircle
 10
219.29654004694339
 20
539.94814641220012
 30
0
 40
4.57999999997765
100
AcDbArc
 50
269.99982561156793
 51
90.000179397394973
  0
LINE
  5
375
330
1F
100
AcDbEntity
  8
0
 62
7
100
AcDbLine
 10
119.29652570661892
 20
544.52814641219913
 30
0
 11
117.29652610701578
 21
544.52814641219913
 31
0
  0
ARC
  5
376
330
1F
100
AcDbEntity
  8
0
 62
7
100
AcDbCircle
 10
117.29654691971564
 20
539.94814641219921
 30
0
 40
4.58000000004768
100
AcDbArc
 50
90.000260366782129
 51
269.999734624255
  0
LINE
  5
377
330
1F
100
AcDbEntity
  8
0
 62
7
100
AcDbLine
 10
117.29652570661892
 20
535.36814641220019
 30
0
 11
119.29652610701578
 21
535.36814641220019
 31
0
  0
ARC
  5
378
330
1F
100
AcDbEntity
  8
0
 62
7
100
AcDbCircle
 10
119.29654908758357
 20
539.94814641220012
 30
0
 40
4.57999999994081
100
AcDbArc
 50
269.99971251319971
 51
90.000292495763162
  0
LINE
  5
379
330
1F
100
AcDbEntity
  8
0
 62
7
100
AcDbLine
 10
59.296556224196593
 20
544.52814641219913
 30
0
 11
57.296556624593904
 21
544.52814641219913
 31
0
  0
ARC
  5
37A
330
1F
100
AcDbEntity
  8
0
 62
7
100
AcDbCircle
 10
57.296544436450858
 20
539.94814641220012
 30
0
 40
4.57999999998379
100
AcDbArc
 50
89.999847526385025
 51
270.00014746464643
  0
LINE
  5
37B
330
1F
100
AcDbEntity
  8
0
 62
7
100
AcDbLine
 10
57.296556224196593
 20
535.36814641220019
 30
0
 11
59.296556624593904
 21
535.36814641220019
 31
0
  0
ARC
  5
37C
330
1F
100
AcDbEntity
  8
0
 62
7
100
AcDbCircle
 10
59.296537387638637
 20
539.94814641219921
 30
0
 40
4.58000000003904
100
AcDbArc
 50
270.00024065422434
 51
89.999764354744229
  0
ARC
  5
37D
330
1F
100
AcDbEntity
  8
0
 62
7
100
AcDbCircle
 10
110.04652590681781
 20
606.22318580933927
 30
0
 40
5.58
100
AcDbArc
 50
180.00000221996956
 51
1.2890963462593251E-05
  0
LINE
  5
37E
330
1F
100
AcDbEntity
  8
0
 62
7
100
AcDbLine
 10
115.62652590681773
 20
606.22318706478211
 30
0
 11
115.62652590681682
 21
608.22318608505077
 31
0
  0
ARC
  5
37F
330
1F
100
AcDbEntity
  8
0
 62
7
100
AcDbCircle
 10
110.0465259068169
 20
608.22317008603488
 30
0
 40
5.58000000002312
100
AcDbArc
 50
0.00016427886857479235
 51
179.9998306701394
  0
LINE
  5
380
330
1F
100
AcDbEntity
  8
0
 62
7
100
AcDbLine
 10
104.46652590681788
 20
608.22318657696371
 30
0
 11
104.46652590681788
 21
606.22318559313783
 31
0
  0
LINE
  5
381
330
1F
100
AcDbEntity
  8
0
 62
7
100
AcDbLine
 10
29.999999638831923
 20
527.44816211177124
 30
0
 11
29.999999638881945
 21
556.34817431880322
 31
0
  0
ARC
  5
382
330
1F
100
AcDbEntity
  8
0
 62
7
100
AcDbCircle
 10
24.999999638919235
 20
556.34817431884869
 30
0
 40
4.9999999999629
100
AcDbArc
 50
359.99999999947892
 51
90.000000000323084
  0
LINE
  5
383
330
1F
100
AcDbEntity
  8
0
 62
7
100
AcDbLine
 10
24.99999963889104
 20
561.3481743188114
 30
0
 11
9.9999994203349161
 21
561.34817431883778
 31
0
  0
ARC
  5
384
330
1F
100
AcDbEntity
  8
0
 62
7
100
AcDbCircle
 10
9.9999996388819454
 20
556.34817431883778
 30
0
 40
5
100
AcDbArc
 50
90.000002504364488
 51
179.99999999989578
  0
LINE
  5
385
330
1F
100
AcDbEntity
  8
0
 62
7
100
AcDbLine
 10
4.9999996388819454
 20
556.34817431884687
 30
0
 11
4.9999996387864485
 21
501.448162111815
 31
0
  0
ARC
  5
386
330
1F
100
AcDbEntity
  8
0
 62
7
100
AcDbCircle
 10
9.9999996388878571
 20
501.44816211190778
 30
0
 40
5.00000000010149
100
AcDbArc
 50
180.00000000106303
 51
269.99999999873376
  0
LINE
  5
387
330
1F
100
AcDbEntity
  8
0
 62
7
100
AcDbLine
 10
9.9999996387773535
 20
496.44816211180591
 30
0
 11
196.74999963510845
 21
496.44816211148117
 31
0
  0
ARC
  5
388
330
1F
100
AcDbEntity
  8
0
 62
7
100
AcDbCircle
 10
196.74999963876917
 20
491.44816211148117
 30
0
 40
5.00000000000002
100
AcDbArc
 50
5.0508861212297384E-06
 51
90.000000041948724
  0
LINE
  5
389
330
1F
100
AcDbEntity
  8
0
 62
7
100
AcDbLine
 10
201.74999963876917
 20
491.44816255225413
 30
0
 11
201.74999963876826
 21
491.14817431850332
 31
0
  0
ARC
  5
38A
330
1F
100
AcDbEntity
  8
0
 62
7
100
AcDbCircle
 10
206.74999963880555
 20
491.14817431853152
 30
0
 40
5.00000000003686
100
AcDbArc
 50
180.00000000032307
 51
269.99999999947369
  0
LINE
  5
38B
330
1F
100
AcDbEntity
  8
0
 62
7
100
AcDbLine
 10
206.74999963875962
 20
486.14817431849423
 30
0
 11
221.74999963875962
 21
486.14817431846785
 31
0
  0
ARC
  5
38C
330
1F
100
AcDbEntity
  8
0
 62
7
100
AcDbCircle
 10
221.74999963876826
 20
491.14817431846785
 30
0
 40
5
100
AcDbArc
 50
269.999999999901
 51
7.5133331515129447E-06
  0
LINE
  5
38D
330
1F
100
AcDbEntity
  8
0
 62
7
100
AcDbLine
 10
226.74999963876826
 20
491.14817497412986
 30
0
 11
226.74999963881282
 21
516.44816211142745
 31
0
  0
ARC
  5
38E
330
1F
100
AcDbEntity
  8
0
 62
7
100
AcDbCircle
 10
221.74999963881282
 20
516.44816211143655
 30
0
 40
5.00000000000002
100
AcDbArc
 50
359.99999999989581
 51
90.000000041948724
  0
LINE
  5
38F
330
1F
100
AcDbEntity
  8
0
 62
7
100
AcDbLine
 10
221.74999963515211
 20
521.44816211143655
 30
0
 11
34.999999638821009
 21
521.44816211176214
 31
0
  0
ARC
  5
390
330
1F
100
AcDbEntity
  8
0
 62
7
100
AcDbCircle
 10
34.898769815535616
 20
526.447137259017
 30
0
 40
4.9999999999994
100
AcDbArc
 50
168.45105459495502
 51
271.16008758936823
  0
CIRCLE
  5
391
330
1F
100
AcDbEntity
  8
0
 62
7
100
AcDbCircle
 10
86.749999638790086
 20
503.44816211167313
 30
0
 40
3.58
  0
CIRCLE
  5
392
330
1F
100
AcDbEntity
  8
0
 62
7
100
AcDbCircle
 10
17.499999638874669
 20
552.09820483640317
 30
0
 40
3.58
  0
LINE
  5
393
330
1F
100
AcDbEntity
  8
0
 62
7
100
AcDbLine
 10
215.74999939486179
 20
493.06817431847793
 30
0
 11
217.749999882682
 21
493.06817431847429
 31
0
  0
ARC
  5
394
330
1F
100
AcDbEntity
  8
0
 62
7
100
AcDbCircle
 10
217.74999001489277
 20
498.64817431847422
 30
0
 40
5.5800000000088
100
AcDbArc
 50
270.00010132306028
 51
89.999903685706656
  0
LINE
  5
395
330
1F
100
AcDbEntity
  8
0
 62
7
100
AcDbLine
 10
217.74999939488134
 20
504.22817431847506
 30
0
 11
215.74999988270019
 21
504.22817431847869
 31
0
  0
ARC
  5
396
330
1F
100
AcDbEntity
  8
0
 62
7
100
AcDbCircle
 10
215.75000990065155
 20
498.64817431847786
 30
0
 40
5.58000000000994
100
AcDbArc
 50
90.00010286493405
 51
269.99989212591151
  0
LINE
  5
397
330
1F
100
AcDbEntity
  8
0
 62
7
100
AcDbLine
 10
431.49999963883192
 20
481.28150523105995
 30
0
 11
494.000000079614
 21
481.28150523095172
 31
0
  0
ARC
  5
398
330
1F
100
AcDbEntity
  8
0
 62
7
100
AcDbCircle
 10
494.00000007987273
 20
476.28150523121911
 30
0
 40
4.99999999973235
100
AcDbArc
 50
359.99999999683172
 51
90.000000002965081
  0
LINE
  5
399
330
1F
100
AcDbEntity
  8
0
 62
7
100
AcDbLine
 10
499.00000007960489
 20
476.28150523094263
 30
0
 11
499.00000007942663
 21
374.03150501427007
 31
0
  0
ARC
  5
39A
330
1F
100
AcDbEntity
  8
0
 62
7
100
AcDbCircle
 10
494.00000007942663
 20
374.03150523095172
 30
0
 40
5
100
AcDbArc
 50
269.999999999901
 51
359.99999751701114
  0
LINE
  5
39B
330
1F
100
AcDbEntity
  8
0
 62
7
100
AcDbLine
 10
494.000000079418
 20
369.03150523095172
 30
0
 11
485.22497587609041
 21
369.03150523096537
 31
0
  0
ARC
  5
39C
330
1F
100
AcDbEntity
  8
0
 62
7
100
AcDbCircle
 10
485.22497566534685
 20
364.03150523096537
 30
0
 40
5
100
AcDbArc
 50
89.999997585056633
 51
179.99999999989578
  0
LINE
  5
39D
330
1F
100
AcDbEntity
  8
0
 62
7
100
AcDbLine
 10
480.22497566534685
 20
364.03150523097446
 30
0
 11
480.22497566528591
 21
329.03150523464427
 31
0
  0
ARC
  5
39E
330
1F
100
AcDbEntity
  8
0
 62
7
100
AcDbCircle
 10
485.22497566528591
 20
329.03150523096627
 30
0
 40
5.00000000000002
100
AcDbArc
 50
179.99999995785328
 51
269.999999999901
  0
LINE
  5
39F
330
1F
100
AcDbEntity
  8
0
 62
7
100
AcDbLine
 10
485.22497566527727
 20
324.03150523096627
 30
0
 11
494.00000007933932
 21
324.03150523095172
 31
0
  0
ARC
  5
3A0
330
1F
100
AcDbEntity
  8
0
 62
7
100
AcDbCircle
 10
494.00000007945664
 20
319.03150523107723
 30
0
 40
4.99999999987383
100
AcDbArc
 50
359.99999999844715
 51
90.000000001344446
  0
LINE
  5
3A1
330
1F
100
AcDbEntity
  8
0
 62
7
100
AcDbLine
 10
499.00000007933068
 20
319.03150523094172
 30
0
 11
499.00000007926292
 21
280.28153575218784
 31
0
  0
ARC
  5
3A2
330
1F
100
AcDbEntity
  8
0
 62
7
100
AcDbCircle
 10
504.00000007889867
 20
280.28153574814786
 30
0
 40
4.99999999963572
100
AcDbArc
 50
179.9999999537053
 51
269.9999949530951
  0
LINE
  5
3A3
330
1F
100
AcDbEntity
  8
0
 62
7
100
AcDbLine
 10
503.99999963847313
 20
275.28153574851166
 30
0
 11
579.9999994254681
 21
275.28153574837887
 31
0
  0
ARC
  5
3A4
330
1F
100
AcDbEntity
  8
0
 62
7
100
AcDbCircle
 10
580.00000007926292
 20
280.28153574837887
 30
0
 40
5
100
AcDbArc
 50
269.99999250806331
 51
359.99999999990621
  0
LINE
  5
3A5
330
1F
100
AcDbEntity
  8
0
 62
7
100
AcDbLine
 10
585.00000007926292
 20
280.28153574837069
 30
0
 11
585.00000007964854
 21
501.28150523079256
 31
0
  0
ARC
  5
3A6
330
1F
100
AcDbEntity
  8
0
 62
7
100
AcDbCircle
 10
580.00000007979679
 20
501.281505230949
 30
0
 40
4.99999999985213
100
AcDbArc
 50
359.99999999820739
 51
90.000000001599787
  0
LINE
  5
3A7
330
1F
100
AcDbEntity
  8
0
 62
7
100
AcDbLine
 10
580.00000007965718
 20
506.28150523080075
 30
0
 11
431.50000029039211
 21
506.28150523105995
 31
0
  0
ARC
  5
3A8
330
1F
100
AcDbEntity
  8
0
 62
7
100
AcDbCircle
 10
431.50000007964854
 20
501.28150523105995
 30
0
 40
5
100
AcDbArc
 50
89.999997585056633
 51
179.99999758505663
  0
LINE
  5
3A9
330
1F
100
AcDbEntity
  8
0
 62
7
100
AcDbLine
 10
426.50000007964854
 20
501.28150544180352
 30
0
 11
426.50000007962262
 21
486.28150523106905
 31
0
  0
ARC
  5
3AA
330
1F
100
AcDbEntity
  8
0
 62
7
100
AcDbCircle
 10
431.50000007962262
 20
486.28150523105995
 30
0
 40
5.00000000000002
100
AcDbArc
 50
179.99999999989578
 51
269.99999494891063
  0
CIRCLE
  5
3AB
330
1F
100
AcDbEntity
  8
0
 62
7
100
AcDbCircle
 10
506.0000000792802
 20
290.281535748508
 30
0
 40
3.58
  0
CIRCLE
  5
3AC
330
1F
100
AcDbEntity
  8
0
 62
7
100
AcDbCircle
 10
549.80000313102846
 20
284.63151133436912
 30
0
 40
3.58
  0
CIRCLE
  5
3AD
330
1F
100
AcDbEntity
  8
0
 62
7
100
AcDbCircle
 10
506.00000007964536
 20
499.28150523092989
 30
0
 40
3.58
  0
CIRCLE
  5
3AE
330
1F
100
AcDbEntity
  8
0
 62
7
100
AcDbCircle
 10
439.00000007964127
 20
497.03150523104722
 30
0
 40
3.58
  0
LINE
  5
3AF
330
1F
100
AcDbEntity
  8
0
 62
7
100
AcDbLine
 10
567.920015338359
 20
455.78150503062278
 30
0
 11
567.92001533835582
 21
453.78150543102055
 31
0
  0
ARC
  5
3B0
330
1F
100
AcDbEntity
  8
0
 62
7
100
AcDbCircle
 10
572.50001533835575
 20
453.78151300253666
 30
0
 40
4.58000000000607
100
AcDbArc
 50
180.00009471963261
 51
359.99990027119964
  0
LINE
  5
3B1
330
1F
100
AcDbEntity
  8
0
 62
7
100
AcDbLine
 10
577.08001533835477
 20
453.78150503060732
 30
0
 11
577.08001533835841
 21
455.78150543100418
 31
0
  0
ARC
  5
3B2
330
1F
100
AcDbEntity
  8
0
 62
7
100
AcDbCircle
 10
572.500015338358
 20
455.78151937094043
 30
0
 40
4.57999999997765
100
AcDbArc
 50
359.99982561145987
 51
180.00017939730961
  0
LINE
  5
3B3
330
1F
100
AcDbEntity
  8
0
 62
7
100
AcDbLine
 10
567.92001533818484
 20
355.78150503062278
 30
0
 11
567.9200153381812
 21
353.78150543102055
 31
0
  0
ARC
  5
3B4
330
1F
100
AcDbEntity
  8
0
 62
7
100
AcDbCircle
 10
572.50001533818113
 20
353.78152624371177
 30
0
 40
4.58000000004768
100
AcDbArc
 50
180.00026036667404
 51
359.99973462415829
  0
LINE
  5
3B5
330
1F
100
AcDbEntity
  8
0
 62
7
100
AcDbLine
 10
577.08001533818015
 20
353.78150503060732
 30
0
 11
577.08001533818378
 21
355.78150543100418
 31
0
  0
ARC
  5
3B6
330
1F
100
AcDbEntity
  8
0
 62
7
100
AcDbCircle
 10
572.50001533818386
 20
355.78152841158061
 30
0
 40
4.57999999994081
100
AcDbArc
 50
359.99971251309165
 51
180.00029249567783
  0
LINE
  5
3B7
330
1F
100
AcDbEntity
  8
0
 62
7
100
AcDbLine
 10
567.92001533807979
 20
295.78153554820091
 30
0
 11
567.92001533807661
 21
293.78153594859867
 31
0
  0
ARC
  5
3B8
330
1F
100
AcDbEntity
  8
0
 62
7
100
AcDbCircle
 10
572.50001533807563
 20
293.78152376044744
 30
0
 40
4.57999999998379
100
AcDbArc
 50
179.99984752628262
 51
0.00014746454969513496
  0
LINE
  5
3B9
330
1F
100
AcDbEntity
  8
0
 62
7
100
AcDbLine
 10
577.08001533807555
 20
293.78153554818545
 30
0
 11
577.08001533807874
 21
295.7815359485823
 31
0
  0
ARC
  5
3BA
330
1F
100
AcDbEntity
  8
0
 62
7
100
AcDbCircle
 10
572.50001533807972
 20
295.78151671163522
 30
0
 40
4.58000000003904
100
AcDbArc
 50
0.00024065412195005146
 51
179.99976435464754
  0
ARC
  5
3BB
330
1F
100
AcDbEntity
  8
0
 62
7
100
AcDbCircle
 10
506.22497594102879
 20
346.53150523092989
 30
0
 40
5.58
100
AcDbArc
 50
270.00000221986221
 51
90.000012890870082
  0
LINE
  5
3BC
330
1F
100
AcDbEntity
  8
0
 62
7
100
AcDbLine
 10
506.22497468559504
 20
352.11150523092982
 30
0
 11
504.22497566532638
 21
352.11150523093255
 31
0
  0
ARC
  5
3BD
330
1F
100
AcDbEntity
  8
0
 62
7
100
AcDbCircle
 10
504.22499166433226
 20
346.53150523093262
 30
0
 40
5.58000000002312
100
AcDbArc
 50
90.000164278765851
 51
269.99983067004132
  0
LINE
  5
3BE
330
1F
100
AcDbEntity
  8
0
 62
7
100
AcDbLine
 10
504.22497517339389
 20
340.95150523093361
 30
0
 11
506.22497615721977
 21
340.95150523092997
 31
0
  0
LINE
  5
3BF
330
1F
100
AcDbEntity
  8
0
 62
7
100
AcDbLine
 10
95.396222099226634
 20
462.27617067100732
 30
0
 11
157.89622254000869
 21
462.27617067089813
 31
0
  0
ARC
  5
3C0
330
1F
100
AcDbEntity
  8
0
 62
7
100
AcDbCircle
 10
157.89622254010328
 20
467.27617067081172
 30
0
 40
4.99999999991386
100
AcDbArc
 50
269.99999999891611
 51
8.8587353433389812E-10
  0
LINE
  5
3C1
330
1F
100
AcDbEntity
  8
0
 62
7
100
AcDbLine
 10
162.89622254001733
 20
467.27617067088903
 30
0
 11
162.89622254004371
 21
482.276170889447
 31
0
  0
ARC
  5
3C2
330
1F
100
AcDbEntity
  8
0
 62
7
100
AcDbCircle
 10
157.89622254029337
 20
482.27617067114824
 30
0
 40
4.99999999975005
100
AcDbArc
 50
2.5015192642923836E-06
 51
90.000007516194
  0
LINE
  5
3C3
330
1F
100
AcDbEntity
  8
0
 62
7
100
AcDbLine
 10
157.8962218843817
 20
487.27617067089813
 30
0
 11
16.146223193838068
 21
487.27617067114556
 31
0
  0
ARC
  5
3C4
330
1F
100
AcDbEntity
  8
0
 62
7
100
AcDbCircle
 10
16.146222540043254
 20
482.27617067114556
 30
0
 40
5
100
AcDbArc
 50
89.9999925080633
 51
179.99999999989578
  0
LINE
  5
3C5
330
1F
100
AcDbEntity
  8
0
 62
7
100
AcDbLine
 10
11.146222540043254
 20
482.27617067115466
 30
0
 11
11.146222539705832
 21
288.77617067115466
 31
0
  0
ARC
  5
3C6
330
1F
100
AcDbEntity
  8
0
 62
7
100
AcDbCircle
 10
16.146222539885002
 20
288.77617067132473
 30
0
 40
5.00000000017931
100
AcDbArc
 50
180.00000000194891
 51
269.99999999784785
  0
LINE
  5
3C7
330
1F
100
AcDbEntity
  8
0
 62
7
100
AcDbLine
 10
16.146222539697192
 20
283.77617067114556
 30
0
 11
85.396222539697192
 21
283.7761706710246
 31
0
  0
ARC
  5
3C8
330
1F
100
AcDbEntity
  8
0
 62
7
100
AcDbCircle
 10
85.396222539442988
 20
288.77617067128745
 30
0
 40
5.00000000026307
100
AcDbArc
 50
270.000000002913
 51
359.99999999689425
  0
LINE
  5
3C9
330
1F
100
AcDbEntity
  8
0
 62
7
100
AcDbLine
 10
90.396222539705832
 20
288.77617067101642
 30
0
 11
90.3962225397604
 21
320.02617066734751
 31
0
  0
ARC
  5
3CA
330
1F
100
AcDbEntity
  8
0
 62
7
100
AcDbCircle
 10
95.3962225397604
 20
320.02617067100732
 30
0
 40
5.00000000000002
100
AcDbArc
 50
89.999999999901
 51
180.00000004193828
  0
LINE
  5
3CB
330
1F
100
AcDbEntity
  8
0
 62
7
100
AcDbLine
 10
95.396222539769042
 20
325.02617067100732
 30
0
 11
104.17121643625342
 21
325.02617067099186
 31
0
  0
ARC
  5
3CC
330
1F
100
AcDbEntity
  8
0
 62
7
100
AcDbCircle
 10
104.17121643658447
 20
330.0261706706699
 30
0
 40
4.99999999967752
100
AcDbArc
 50
269.99999999620638
 51
3.5956043454076355E-09
  0
LINE
  5
3CD
330
1F
100
AcDbEntity
  8
0
 62
7
100
AcDbLine
 10
109.17121643626206
 20
330.02617067098367
 30
0
 11
109.171216436323
 21
365.02617088953889
 31
0
  0
ARC
  5
3CE
330
1F
100
AcDbEntity
  8
0
 62
7
100
AcDbCircle
 10
104.17121643632345
 20
365.02617067099186
 30
0
 40
5
100
AcDbArc
 50
2.5043644815191074E-06
 51
89.999999999901
  0
LINE
  5
3CF
330
1F
100
AcDbEntity
  8
0
 62
7
100
AcDbLine
 10
104.17121643633209
 20
370.02617067099186
 30
0
 11
95.396222321289315
 21
370.02617067100732
 31
0
  0
ARC
  5
3D0
330
1F
100
AcDbEntity
  8
0
 62
7
100
AcDbCircle
 10
95.396222539856353
 20
375.02617067100732
 30
0
 40
5
100
AcDbArc
 50
179.99999999989578
 51
269.99999749540621
  0
LINE
  5
3D1
330
1F
100
AcDbEntity
  8
0
 62
7
100
AcDbLine
 10
90.396222539856353
 20
375.02617067101642
 30
0
 11
90.396222540000053
 21
457.27617066734842
 31
0
  0
ARC
  5
3D2
330
1F
100
AcDbEntity
  8
0
 62
7
100
AcDbCircle
 10
95.396222540000053
 20
457.27617067100732
 30
0
 40
5.00000000000002
100
AcDbArc
 50
90.000005050891332
 51
180.00000004192788
  0
CIRCLE
  5
3D3
330
1F
100
AcDbEntity
  8
0
 62
7
100
AcDbCircle
 10
150.39622254003598
 20
478.02617067091086
 30
0
 40
3.58
  0
CIRCLE
  5
3D4
330
1F
100
AcDbEntity
  8
0
 62
7
100
AcDbCircle
 10
76.396222540040071
 20
480.27617067104006
 30
0
 40
3.58
  0
CIRCLE
  5
3D5
330
1F
100
AcDbEntity
  8
0
 62
7
100
AcDbCircle
 10
83.3962225399564
 20
432.27617067102824
 30
0
 40
2.58
  0
CIRCLE
  5
3D6
330
1F
100
AcDbEntity
  8
0
 62
7
100
AcDbCircle
 10
21.146222539710379
 20
291.27617067113647
 30
0
 40
3.58
  0
CIRCLE
  5
3D7
330
1F
100
AcDbEntity
  8
0
 62
7
100
AcDbCircle
 10
21.146222539762675
 20
321.27617067113647
 30
0
 40
4.58
  0
CIRCLE
  5
3D8
330
1F
100
AcDbEntity
  8
0
 62
7
100
AcDbCircle
 10
21.146222539907285
 20
404.27617067113647
 30
0
 40
4.58
  0
CIRCLE
  5
3D9
330
1F
100
AcDbEntity
  8
0
 62
7
100
AcDbCircle
 10
21.146222540029612
 20
474.27617067113647
 30
0
 40
4.58
  0
ARC
  5
3DA
330
1F
100
AcDbEntity
  8
0
 62
7
100
AcDbCircle
 10
83.171215967434819
 20
347.52617067102824
 30
0
 40
5.58000000000002
100
AcDbArc
 50
90.000000236629845
 51
270.0000148741164
  0
LINE
  5
3DB
330
1F
100
AcDbEntity
  8
0
 62
7
100
AcDbLine
 10
83.171217416015679
 20
341.94617067102831
 30
0
 11
85.171216436282975
 21
341.94617067102558
 31
0
  0
ARC
  5
3DC
330
1F
100
AcDbEntity
  8
0
 62
7
100
AcDbCircle
 10
85.171226076335188
 20
347.52617067102551
 30
0
 40
5.57999999999129
100
AcDbArc
 50
269.99990101535735
 51
90.000103993409553
  0
LINE
  5
3DD
330
1F
100
AcDbEntity
  8
0
 62
7
100
AcDbLine
 10
85.171215948482313
 20
353.10617067102544
 30
0
 11
83.171215944389587
 21
353.10617067102908
 31
0
  0
LINE
  5
3DE
330
1F
100
AcDbEntity
  8
0
 62
7
100
AcDbLine
 10
228.72497563883189
 20
456.69997010003607
 30
0
 11
291.22497607961395
 21
456.69997010003607
 31
0
  0
ARC
  5
3DF
330
1F
100
AcDbEntity
  8
0
 62
7
100
AcDbCircle
 10
291.22497607988134
 20
451.69997010030346
 30
0
 40
4.99999999973235
100
AcDbArc
 50
359.99999999693591
 51
90.000000003064088
  0
LINE
  5
3E0
330
1F
100
AcDbEntity
  8
0
 62
7
100
AcDbLine
 10
296.22497607961395
 20
451.69997010003607
 30
0
 11
296.22497607961395
 21
349.44996988336442
 31
0
  0
ARC
  5
3E1
330
1F
100
AcDbEntity
  8
0
 62
7
100
AcDbCircle
 10
291.22497607961395
 20
349.44997010003607
 30
0
 40
5
100
AcDbArc
 50
270
 51
359.99999751712579
  0
LINE
  5
3E2
330
1F
100
AcDbEntity
  8
0
 62
7
100
AcDbLine
 10
291.22497607961395
 20
344.44997010003607
 30
0
 11
282.44995187628638
 21
344.44997010003516
 31
0
  0
ARC
  5
3E3
330
1F
100
AcDbEntity
  8
0
 62
7
100
AcDbCircle
 10
282.44995166555191
 20
339.44997010003516
 30
0
 40
5
100
AcDbArc
 50
89.999997585160855
 51
180
  0
LINE
  5
3E4
330
1F
100
AcDbEntity
  8
0
 62
7
100
AcDbLine
 10
277.44995166555191
 20
339.44997010003516
 30
0
 11
277.44995166555191
 21
304.44997010370497
 31
0
  0
ARC
  5
3E5
330
1F
100
AcDbEntity
  8
0
 62
7
100
AcDbCircle
 10
282.44995166555191
 20
304.44997010003607
 30
0
 40
5.00000000000002
100
AcDbArc
 50
179.9999999579575
 51
270
  0
LINE
  5
3E6
330
1F
100
AcDbEntity
  8
0
 62
7
100
AcDbLine
 10
282.44995166555191
 20
299.44997010003607
 30
0
 11
291.22497607961395
 21
299.44997010003607
 31
0
  0
ARC
  5
3E7
330
1F
100
AcDbEntity
  8
0
 62
7
100
AcDbCircle
 10
291.22497607973992
 20
294.44997010016249
 30
0
 40
4.99999999987383
100
AcDbArc
 50
359.99999999854089
 51
90.000000001443453
  0
LINE
  5
3E8
330
1F
100
AcDbEntity
  8
0
 62
7
100
AcDbLine
 10
296.22497607961395
 20
294.44997010003516
 30
0
 11
296.22497607961395
 21
255.70000062128128
 31
0
  0
ARC
  5
3E9
330
1F
100
AcDbEntity
  8
0
 62
7
100
AcDbCircle
 10
301.2249760792497
 20
255.7000006172504
 30
0
 40
4.99999999963572
100
AcDbArc
 50
179.99999995380952
 51
269.99999495319412
  0
LINE
  5
3EA
330
1F
100
AcDbEntity
  8
0
 62
7
100
AcDbLine
 10
301.2249756388328
 20
250.70000061761419
 30
0
 11
377.22497542582778
 21
250.70000061761417
 31
0
  0
ARC
  5
3EB
330
1F
100
AcDbEntity
  8
0
 62
7
100
AcDbCircle
 10
377.2249760796135
 20
255.70000061761417
 30
0
 40
5
100
AcDbArc
 50
269.99999250816751
 51
0
  0
LINE
  5
3EC
330
1F
100
AcDbEntity
  8
0
 62
7
100
AcDbLine
 10
382.2249760796135
 20
255.70000061761417
 30
0
 11
382.2249760796135
 21
476.69997010003607
 31
0
  0
ARC
  5
3ED
330
1F
100
AcDbEntity
  8
0
 62
7
100
AcDbCircle
 10
377.22497607976175
 20
476.69997010018432
 30
0
 40
4.99999999985213
100
AcDbArc
 50
359.99999999830123
 51
90.0000000016988
  0
LINE
  5
3EE
330
1F
100
AcDbEntity
  8
0
 62
7
100
AcDbLine
 10
377.2249760796135
 20
481.69997010003607
 30
0
 11
228.72497629034842
 21
481.69997010003607
 31
0
  0
ARC
  5
3EF
330
1F
100
AcDbEntity
  8
0
 62
7
100
AcDbCircle
 10
228.72497607961395
 20
476.69997010003607
 30
0
 40
5
100
AcDbArc
 50
89.999997585160855
 51
179.99999758516086
  0
LINE
  5
3F0
330
1F
100
AcDbEntity
  8
0
 62
7
100
AcDbLine
 10
223.72497607961395
 20
476.69997031077054
 30
0
 11
223.72497607961395
 21
461.69997010003607
 31
0
  0
ARC
  5
3F1
330
1F
100
AcDbEntity
  8
0
 62
7
100
AcDbCircle
 10
228.72497607961395
 20
461.69997010003607
 30
0
 40
5.00000000000002
100
AcDbArc
 50
180
 51
269.99999494900965
  0
CIRCLE
  5
3F2
330
1F
100
AcDbEntity
  8
0
 62
7
100
AcDbCircle
 10
303.22497607961395
 20
265.70000061761419
 30
0
 40
3.58
  0
CIRCLE
  5
3F3
330
1F
100
AcDbEntity
  8
0
 62
7
100
AcDbCircle
 10
347.02497913137177
 20
260.04997620355169
 30
0
 40
3.58
  0
CIRCLE
  5
3F4
330
1F
100
AcDbEntity
  8
0
 62
7
100
AcDbCircle
 10
303.22497607961395
 20
474.69997010003607
 30
0
 40
3.58
  0
CIRCLE
  5
3F5
330
1F
100
AcDbEntity
  8
0
 62
7
100
AcDbCircle
 10
236.22497607961395
 20
472.44997010003607
 30
0
 40
3.58
  0
LINE
  5
3F6
330
1F
100
AcDbEntity
  8
0
 62
7
100
AcDbLine
 10
365.14499133840354
 20
431.19996989983719
 30
0
 11
365.14499133840354
 21
429.19997030023404
 31
0
  0
ARC
  5
3F7
330
1F
100
AcDbEntity
  8
0
 62
7
100
AcDbCircle
 10
369.72499133840392
 20
429.19997787175924
 30
0
 40
4.58000000000607
100
AcDbArc
 50
180.00009471974641
 51
359.9999002712907
  0
LINE
  5
3F8
330
1F
100
AcDbEntity
  8
0
 62
7
100
AcDbLine
 10
374.30499133840249
 20
429.19996989983719
 30
0
 11
374.30499133840249
 21
431.19997030023404
 31
0
  0
ARC
  5
3F9
330
1F
100
AcDbEntity
  8
0
 62
7
100
AcDbCircle
 10
369.72499133840256
 20
431.19998424016211
 30
0
 40
4.57999999997765
100
AcDbArc
 50
359.99982561156224
 51
180.00017939740064
  0
LINE
  5
3FA
330
1F
100
AcDbEntity
  8
0
 62
7
100
AcDbLine
 10
365.14499133840354
 20
331.19996989983719
 30
0
 11
365.14499133840354
 21
329.19997030023404
 31
0
  0
ARC
  5
3FB
330
1F
100
AcDbEntity
  8
0
 62
7
100
AcDbCircle
 10
369.72499133840392
 20
329.19999111293436
 30
0
 40
4.58000000004768
100
AcDbArc
 50
180.00026036678781
 51
359.99973462424924
  0
LINE
  5
3FC
330
1F
100
AcDbEntity
  8
0
 62
7
100
AcDbLine
 10
374.30499133840249
 20
329.19996989983719
 30
0
 11
374.30499133840249
 21
331.19997030023404
 31
0
  0
ARC
  5
3FD
330
1F
100
AcDbEntity
  8
0
 62
7
100
AcDbCircle
 10
369.72499133840256
 20
331.19999328080229
 30
0
 40
4.57999999994081
100
AcDbArc
 50
359.999712513194
 51
180.00029249576883
  0
LINE
  5
3FE
330
1F
100
AcDbEntity
  8
0
 62
7
100
AcDbLine
 10
365.14499133840354
 20
271.20000041741531
 30
0
 11
365.14499133840354
 21
269.20000081781217
 31
0
  0
ARC
  5
3FF
330
1F
100
AcDbEntity
  8
0
 62
7
100
AcDbCircle
 10
369.72499133840256
 20
269.19998862966912
 30
0
 40
4.57999999998379
100
AcDbArc
 50
179.999847526385
 51
0.00014746465209510682
  0
LINE
  5
400
330
1F
100
AcDbEntity
  8
0
 62
7
100
AcDbLine
 10
374.30499133840249
 20
269.20000041741531
 30
0
 11
374.30499133840249
 21
271.20000081781217
 31
0
  0
ARC
  5
401
330
1F
100
AcDbEntity
  8
0
 62
7
100
AcDbCircle
 10
369.72499133840392
 20
271.1999815808569
 30
0
 40
4.58000000003904
100
AcDbArc
 50
0.00024065422435004722
 51
179.99976435473855
  0
ARC
  5
402
330
1F
100
AcDbEntity
  8
0
 62
7
100
AcDbCircle
 10
303.44995194126386
 20
321.94997010003607
 30
0
 40
5.58
100
AcDbArc
 50
270.00000221996487
 51
90.000012890968137
  0
LINE
  5
403
330
1F
100
AcDbEntity
  8
0
 62
7
100
AcDbLine
 10
303.44995068582057
 20
327.529970100036
 30
0
 11
301.44995166555191
 21
327.52997010003509
 31
0
  0
ARC
  5
404
330
1F
100
AcDbEntity
  8
0
 62
7
100
AcDbCircle
 10
301.44996766456734
 20
321.94997010003516
 30
0
 40
5.58000000002312
100
AcDbArc
 50
90.0001642788639
 51
269.99983067014409
  0
LINE
  5
405
330
1F
100
AcDbEntity
  8
0
 62
7
100
AcDbLine
 10
301.44995117363896
 20
316.36997010003614
 30
0
 11
303.44995215746485
 21
316.36997010003614
 31
0
  0
LINE
  5
406
330
1F
100
AcDbEntity
  8
0
 62
7
100
AcDbLine
 10
541.72497563883189
 20
269.28153572557056
 30
0
 11
479.22497519804938
 21
269.28153572557056
 31
0
  0
ARC
  5
407
330
1F
100
AcDbEntity
  8
0
 62
7
100
AcDbCircle
 10
479.224975197782
 20
274.28153572530317
 30
0
 40
4.99999999973235
100
AcDbArc
 50
179.99999999693594
 51
270.00000000306409
  0
LINE
  5
408
330
1F
100
AcDbEntity
  8
0
 62
7
100
AcDbLine
 10
474.22497519804938
 20
274.28153572557056
 30
0
 11
474.22497519804983
 21
376.53153594224312
 31
0
  0
ARC
  5
409
330
1F
100
AcDbEntity
  8
0
 62
7
100
AcDbCircle
 10
479.22497519804983
 20
376.53153572557056
 30
0
 40
5
100
AcDbArc
 50
90
 51
179.99999751711536
  0
LINE
  5
40A
330
1F
100
AcDbEntity
  8
0
 62
7
100
AcDbLine
 10
479.22497519804983
 20
381.53153572557056
 30
0
 11
487.99999940137741
 21
381.53153572557147
 31
0
  0
ARC
  5
40B
330
1F
100
AcDbEntity
  8
0
 62
7
100
AcDbCircle
 10
487.99999961211188
 20
386.53153572557147
 30
0
 40
5
100
AcDbArc
 50
269.99999758516083
 51
0
  0
LINE
  5
40C
330
1F
100
AcDbEntity
  8
0
 62
7
100
AcDbLine
 10
492.99999961211188
 20
386.53153572557147
 30
0
 11
492.99999961211188
 21
421.53153572190166
 31
0
  0
ARC
  5
40D
330
1F
100
AcDbEntity
  8
0
 62
7
100
AcDbCircle
 10
487.99999961211188
 20
421.53153572557056
 30
0
 40
5.00000000000002
100
AcDbArc
 50
359.99999995795747
 51
90
  0
LINE
  5
40E
330
1F
100
AcDbEntity
  8
0
 62
7
100
AcDbLine
 10
487.99999961211188
 20
426.53153572557056
 30
0
 11
479.22497519804983
 21
426.53153572557056
 31
0
  0
ARC
  5
40F
330
1F
100
AcDbEntity
  8
0
 62
7
100
AcDbCircle
 10
479.22497519792341
 20
431.53153572544505
 30
0
 40
4.99999999987383
100
AcDbArc
 50
179.99999999855135
 51
270.00000000144865
  0
LINE
  5
410
330
1F
100
AcDbEntity
  8
0
 62
7
100
AcDbLine
 10
474.22497519804983
 20
431.53153572557147
 30
0
 11
474.22497519804983
 21
470.28150520432536
 31
0
  0
ARC
  5
411
330
1F
100
AcDbEntity
  8
0
 62
7
100
AcDbCircle
 10
469.22497519841409
 20
470.28150520835715
 30
0
 40
4.99999999963572
100
AcDbArc
 50
359.99999995379909
 51
89.9999949531941
  0
LINE
  5
412
330
1F
100
AcDbEntity
  8
0
 62
7
100
AcDbLine
 10
469.224975638831
 20
475.28150520799244
 30
0
 11
393.22497585183555
 21
475.28150520799244
 31
0
  0
ARC
  5
413
330
1F
100
AcDbEntity
  8
0
 62
7
100
AcDbCircle
 10
393.22497519804983
 20
470.28150520799244
 30
0
 40
5
100
AcDbArc
 50
89.999992508167523
 51
180
  0
LINE
  5
414
330
1F
100
AcDbEntity
  8
0
 62
7
100
AcDbLine
 10
388.22497519804983
 20
470.28150520799244
 30
0
 11
388.22497519804983
 21
249.28153572557054
 31
0
  0
ARC
  5
415
330
1F
100
AcDbEntity
  8
0
 62
7
100
AcDbCircle
 10
393.22497519790159
 20
249.2815357254232
 30
0
 40
4.99999999985213
100
AcDbArc
 50
179.99999999831164
 51
270.00000000169877
  0
LINE
  5
416
330
1F
100
AcDbEntity
  8
0
 62
7
100
AcDbLine
 10
393.22497519804983
 20
244.28153572557054
 30
0
 11
541.72497498731536
 21
244.28153572557054
 31
0
  0
ARC
  5
417
330
1F
100
AcDbEntity
  8
0
 62
7
100
AcDbCircle
 10
541.72497519804983
 20
249.28153572557054
 30
0
 40
5
100
AcDbArc
 50
269.99999758516083
 51
359.99999758516083
  0
LINE
  5
418
330
1F
100
AcDbEntity
  8
0
 62
7
100
AcDbLine
 10
546.72497519804983
 20
249.28153551483607
 30
0
 11
546.72497519804983
 21
264.28153572557056
 31
0
  0
ARC
  5
419
330
1F
100
AcDbEntity
  8
0
 62
7
100
AcDbCircle
 10
541.72497519804983
 20
264.28153572557056
 30
0
 40
5.00000000000002
100
AcDbArc
 50
0
 51
89.999994949009661
  0
CIRCLE
  5
41A
330
1F
100
AcDbEntity
  8
0
 62
7
100
AcDbCircle
 10
467.22497519804983
 20
460.28150520799244
 30
0
 40
3.58
  0
CIRCLE
  5
41B
330
1F
100
AcDbEntity
  8
0
 62
7
100
AcDbCircle
 10
423.42497214629157
 20
465.93152962205585
 30
0
 40
3.58
  0
CIRCLE
  5
41C
330
1F
100
AcDbEntity
  8
0
 62
7
100
AcDbCircle
 10
467.22497519804938
 20
251.28153572557054
 30
0
 40
3.58
  0
CIRCLE
  5
41D
330
1F
100
AcDbEntity
  8
0
 62
7
100
AcDbCircle
 10
534.22497519804983
 20
253.53153572557054
 30
0
 40
3.58
  0
LINE
  5
41E
330
1F
100
AcDbEntity
  8
0
 62
7
100
AcDbLine
 10
405.30495993925979
 20
294.78153592577036
 30
0
 11
405.30495993925979
 21
296.78153552537259
 31
0
  0
ARC
  5
41F
330
1F
100
AcDbEntity
  8
0
 62
7
100
AcDbCircle
 10
400.72495993925986
 20
296.7815279538483
 30
0
 40
4.58000000000607
100
AcDbArc
 50
9.4719735035346891E-05
 51
179.99990027129073
  0
LINE
  5
420
330
1F
100
AcDbEntity
  8
0
 62
7
100
AcDbLine
 10
396.14495993926084
 20
296.78153592577036
 30
0
 11
396.14495993926084
 21
294.78153552537259
 31
0
  0
ARC
  5
421
330
1F
100
AcDbEntity
  8
0
 62
7
100
AcDbCircle
 10
400.72495993926077
 20
294.78152158544543
 30
0
 40
4.57999999997765
100
AcDbArc
 50
179.99982561157361
 51
0.00017939740065233721
  0
LINE
  5
422
330
1F
100
AcDbEntity
  8
0
 62
7
100
AcDbLine
 10
405.30495993925979
 20
394.78153592576945
 30
0
 11
405.30495993925979
 21
396.78153552537259
 31
0
  0
ARC
  5
423
330
1F
100
AcDbEntity
  8
0
 62
7
100
AcDbCircle
 10
400.72495993925986
 20
396.78151471267319
 30
0
 40
4.58000000004768
100
AcDbArc
 50
0.00026036677644323197
 51
179.99973462426067
  0
LINE
  5
424
330
1F
100
AcDbEntity
  8
0
 62
7
100
AcDbLine
 10
396.14495993926084
 20
396.78153592576945
 30
0
 11
396.14495993926084
 21
394.78153552537259
 31
0
  0
ARC
  5
425
330
1F
100
AcDbEntity
  8
0
 62
7
100
AcDbCircle
 10
400.72495993926077
 20
394.78151254480525
 30
0
 40
4.57999999994081
100
AcDbArc
 50
179.99971251320542
 51
0.00029249575747940075
  0
LINE
  5
426
330
1F
100
AcDbEntity
  8
0
 62
7
100
AcDbLine
 10
405.30495993925979
 20
454.78150540819223
 30
0
 11
405.30495993925979
 21
456.78150500779446
 31
0
  0
ARC
  5
427
330
1F
100
AcDbEntity
  8
0
 62
7
100
AcDbCircle
 10
400.72495993926077
 20
456.78151719593751
 30
0
 40
4.57999999998379
100
AcDbArc
 50
359.99984752638505
 51
180.00014746464072
  0
LINE
  5
428
330
1F
100
AcDbEntity
  8
0
 62
7
100
AcDbLine
 10
396.14495993926084
 20
456.78150540819223
 30
0
 11
396.14495993926084
 21
454.78150500779446
 31
0
  0
ARC
  5
429
330
1F
100
AcDbEntity
  8
0
 62
7
100
AcDbCircle
 10
400.72495993925986
 20
454.78152424474973
 30
0
 40
4.58000000003904
100
AcDbArc
 50
180.00024065422434
 51
359.99976435474991
  0
ARC
  5
42A
330
1F
100
AcDbEntity
  8
0
 62
7
100
AcDbCircle
 10
466.99999933639947
 20
404.03153572557056
 30
0
 40
5.58
100
AcDbArc
 50
90.000002219960237
 51
270.00001289097281
  0
LINE
  5
42B
330
1F
100
AcDbEntity
  8
0
 62
7
100
AcDbLine
 10
467.00000059184322
 20
398.45153572557064
 30
0
 11
468.99999961211188
 21
398.45153572557155
 31
0
  0
ARC
  5
42C
330
1F
100
AcDbEntity
  8
0
 62
7
100
AcDbCircle
 10
468.999983613096
 20
404.03153572557147
 30
0
 40
5.58000000002312
100
AcDbArc
 50
270.00016427886857
 51
89.9998306701394
  0
LINE
  5
42D
330
1F
100
AcDbEntity
  8
0
 62
7
100
AcDbLine
 10
469.00000010402482
 20
409.61153572557049
 30
0
 11
466.99999912019894
 21
409.61153572557049
 31
0
  0
LINE
  5
42E
330
1F
100
AcDbEntity
  8
0
 62
7
100
AcDbLine
 10
142.83143794593752
 20
430.41254826259245
 30
0
 11
171.69193082818174
 21
431.92339443627606
 31
0
  0
ARC
  5
42F
330
1F
100
AcDbEntity
  8
0
 62
7
100
AcDbCircle
 10
171.43053886705775
 20
436.91655718570581
 30
0
 40
4.9999999999629
100
AcDbArc
 50
272.99669730347961
 51
2.996697304325056
  0
LINE
  5
430
330
1F
100
AcDbEntity
  8
0
 62
7
100
AcDbLine
 10
176.42370161648341
 20
437.17794914690347
 30
0
 11
175.63952572156995
 21
452.15743761355333
 31
0
  0
ARC
  5
431
330
1F
100
AcDbEntity
  8
0
 62
7
100
AcDbCircle
 10
170.64636298353116
 20
451.89604543413424
 30
0
 40
5
100
AcDbArc
 50
2.9966998083604466
 51
92.996697303896
  0
LINE
  5
432
330
1F
100
AcDbEntity
  8
0
 62
7
100
AcDbLine
 10
170.38497102236897
 20
456.88920818359856
 30
0
 11
115.56003184290921
 21
454.0191238118698
 31
0
  0
ARC
  5
433
330
1F
100
AcDbEntity
  8
0
 62
7
100
AcDbCircle
 10
115.82142380417872
 20
449.02596106230908
 30
0
 40
5.00000000010149
100
AcDbArc
 50
92.996697305066363
 51
182.99669730273914
  0
LINE
  5
434
330
1F
100
AcDbEntity
  8
0
 62
7
100
AcDbLine
 10
110.82826105460754
 20
448.76456910124239
 30
0
 11
120.59125080383774
 21
262.26994041240891
 31
0
  0
ARC
  5
435
330
1F
100
AcDbEntity
  8
0
 62
7
100
AcDbCircle
 10
115.59808805456532
 20
262.00854844758237
 30
0
 40
5.00000000000002
100
AcDbArc
 50
272.9967023548885
 51
2.9966973459439448
  0
LINE
  5
436
330
1F
100
AcDbEntity
  8
0
 62
7
100
AcDbLine
 10
115.85948045590703
 20
257.015385721161
 30
0
 11
115.55990244109807
 21
256.99970281861192
 31
0
  0
ARC
  5
437
330
1F
100
AcDbEntity
  8
0
 62
7
100
AcDbCircle
 10
115.82129440229937
 20
252.00654006911208
 30
0
 40
5.00000000003686
100
AcDbArc
 50
92.996697304322254
 51
182.99669730347733
  0
LINE
  5
438
330
1F
100
AcDbEntity
  8
0
 62
7
100
AcDbLine
 10
110.8281316527964
 20
251.74514810798445
 30
0
 11
111.61230753628388
 21
236.76565985959149
 31
0
  0
ARC
  5
439
330
1F
100
AcDbEntity
  8
0
 62
7
100
AcDbCircle
 10
116.60547028574865
 20
237.02705182075368
 30
0
 40
5
100
AcDbArc
 50
182.99669730389573
 51
272.99670481733176
  0
LINE
  5
43A
330
1F
100
AcDbEntity
  8
0
 62
7
100
AcDbLine
 10
116.86686290168518
 20
232.03388910556731
 30
0
 11
142.13225356886187
 21
233.35653175660826
 31
0
  0
ARC
  5
43B
330
1F
100
AcDbEntity
  8
0
 62
7
100
AcDbCircle
 10
141.87086160769923
 20
238.34969450607258
 30
0
 40
5.00000000000002
100
AcDbArc
 50
272.99669730390121
 51
2.9966973459436725
  0
LINE
  5
43C
330
1F
100
AcDbEntity
  8
0
 62
7
100
AcDbLine
 10
146.8640243569721
 20
238.61108647089912
 30
0
 11
137.10103460774235
 21
425.1057151597326
 31
0
  0
ARC
  5
43D
330
1F
100
AcDbEntity
  8
0
 62
7
100
AcDbCircle
 10
142.08788177348879
 20
425.46814493980327
 30
0
 40
4.9999999999994
100
AcDbArc
 50
81.447751898956383
 51
184.156784893374
  0
CIRCLE
  5
43E
330
1F
100
AcDbEntity
  8
0
 62
7
100
AcDbCircle
 10
121.8310555077037
 20
372.48546964259026
 30
0
 40
3.58
  0
CIRCLE
  5
43F
330
1F
100
AcDbEntity
  8
0
 62
7
100
AcDbCircle
 10
166.794293064077
 20
444.18411973835936
 30
0
 40
3.58
  0
LINE
  5
440
330
1F
100
AcDbEntity
  8
0
 62
7
100
AcDbLine
 10
118.20917441539541
 20
243.11922187677391
 30
0
 11
118.31373122536297
 21
241.12195628983517
 31
0
  0
ARC
  5
441
330
1F
100
AcDbEntity
  8
0
 62
7
100
AcDbCircle
 10
123.88610033789246
 20
241.41367957279834
 30
0
 40
5.5800000000088
100
AcDbArc
 50
182.99679862706571
 51
2.9966009897014114
  0
LINE
  5
442
330
1F
100
AcDbEntity
  8
0
 62
7
100
AcDbLine
 10
129.45847045666642
 20
241.70538363430313
 30
0
 11
129.35391369770377
 21
243.70264824693749
 31
0
  0
ARC
  5
443
330
1F
100
AcDbEntity
  8
0
 62
7
100
AcDbCircle
 10
123.78154459302323
 20
243.41092481401773
 30
0
 40
5.58000000000994
100
AcDbArc
 50
2.9968001689367214
 51
182.99658942991465
  0
LINE
  5
444
330
1F
100
AcDbEntity
  8
0
 62
7
100
AcDbLine
 10
338.65889963883183
 20
244.48430860795833
 30
0
 11
276.15901229411975
 21
244.60320770843481
 31
0
  0
ARC
  5
445
330
1F
100
AcDbEntity
  8
0
 62
7
100
AcDbCircle
 10
276.16852422182274
 20
249.60319866048138
 30
0
 40
4.99999999973235
100
AcDbArc
 50
179.89100126562687
 51
269.89100127176545
  0
LINE
  5
446
330
1F
100
AcDbEntity
  8
0
 62
7
100
AcDbLine
 10
271.16853326977662
 20
249.61271058872006
 30
0
 11
271.36305219719588
 21
351.86252578022157
 31
0
  0
ARC
  5
447
330
1F
100
AcDbEntity
  8
0
 62
7
100
AcDbCircle
 10
276.36304314909785
 20
351.85301363557954
 30
0
 40
5
100
AcDbArc
 50
89.891001268696783
 51
179.89099878582849
  0
LINE
  5
448
330
1F
100
AcDbEntity
  8
0
 62
7
100
AcDbLine
 10
276.37255507706914
 20
356.85300458789351
 30
0
 11
285.14756340166468
 21
356.836311108261
 31
0
  0
ARC
  5
449
330
1F
100
AcDbEntity
  8
0
 62
7
100
AcDbCircle
 10
285.15707554037
 20
361.83630206017477
 30
0
 40
5
100
AcDbArc
 50
269.89099885385849
 51
359.89100126870721
  0
LINE
  5
44A
330
1F
100
AcDbEntity
  8
0
 62
7
100
AcDbLine
 10
290.15706649268441
 20
361.82679013220439
 30
0
 11
290.22364998847434
 21
396.82672679473507
 31
0
  0
ARC
  5
44B
330
1F
100
AcDbEntity
  8
0
 62
7
100
AcDbCircle
 10
285.22365903616674
 20
396.83623872637526
 30
0
 40
5.00000000000002
100
AcDbArc
 50
359.89100122665417
 51
89.891001268696783
  0
LINE
  5
44C
330
1F
100
AcDbEntity
  8
0
 62
7
100
AcDbLine
 10
285.233170964138
 20
401.83622967868922
 30
0
 11
276.458162428808
 21
401.85292315872374
 31
0
  0
ARC
  5
44D
330
1F
100
AcDbEntity
  8
0
 62
7
100
AcDbCircle
 10
276.46767435665288
 20
406.8529141109122
 30
0
 40
4.99999999987383
100
AcDbArc
 50
179.89100126724537
 51
269.89100127014268
  0
LINE
  5
44E
330
1F
100
AcDbEntity
  8
0
 62
7
100
AcDbLine
 10
271.46768340446488
 20
406.8624260390099
 30
0
 11
271.54140078817682
 21
445.61232539825613
 31
0
  0
ARC
  5
44F
330
1F
100
AcDbEntity
  8
0
 62
7
100
AcDbCircle
 10
266.54140983623438
 20
445.62183733025739
 30
0
 40
4.99999999963572
100
AcDbArc
 50
359.89100122250869
 51
89.890996221894667
  0
LINE
  5
450
330
1F
100
AcDbEntity
  8
0
 62
7
100
AcDbLine
 10
266.55092220462075
 20
450.62182828136991
 30
0
 11
190.55105994244559
 21
450.76640958612387
 31
0
  0
ARC
  5
451
330
1F
100
AcDbEntity
  8
0
 62
7
100
AcDbCircle
 10
190.54154736068995
 20
445.76641863505318
 30
0
 40
5
100
AcDbArc
 50
89.890993776866381
 51
179.89100126869678
  0
LINE
  5
452
330
1F
100
AcDbEntity
  8
0
 62
7
100
AcDbLine
 10
185.54155640837553
 20
445.77593056302447
 30
0
 11
185.12112925011297
 21
224.77636098824877
 31
0
  0
ARC
  5
453
330
1F
100
AcDbEntity
  8
0
 62
7
100
AcDbCircle
 10
190.12112020227914
 20
224.76684906013014
 30
0
 40
4.99999999985213
100
AcDbArc
 50
179.89100126700518
 51
269.89100127039757
  0
LINE
  5
454
330
1F
100
AcDbEntity
  8
0
 62
7
100
AcDbLine
 10
190.11160827445656
 20
219.76685810796351
 30
0
 11
338.61133934746113
 21
219.48435384762541
 31
0
  0
ARC
  5
455
330
1F
100
AcDbEntity
  8
0
 62
7
100
AcDbCircle
 10
338.62085148616643
 20
224.4843447995392
 30
0
 40
5
100
AcDbArc
 50
269.89099885385849
 51
359.89099885386372
  0
LINE
  5
456
330
1F
100
AcDbEntity
  8
0
 62
7
100
AcDbLine
 10
343.62084243807976
 20
224.47483266083435
 30
0
 11
343.64937822239381
 21
239.47480572851163
 31
0
  0
ARC
  5
457
330
1F
100
AcDbEntity
  8
0
 62
7
100
AcDbCircle
 10
338.64938727007939
 20
239.484317656482
 30
0
 40
5.00000000000002
100
AcDbArc
 50
359.89100126870721
 51
89.890996217707738
  0
CIRCLE
  5
458
330
1F
100
AcDbEntity
  8
0
 62
7
100
AcDbCircle
 10
264.5223895990016
 20
435.62566019645345
 30
0
 40
3.58
  0
CIRCLE
  5
459
330
1F
100
AcDbEntity
  8
0
 62
7
100
AcDbCircle
 10
220.73321433002684
 20
441.35899888141938
 30
0
 40
3.58
  0
CIRCLE
  5
45A
330
1F
100
AcDbEntity
  8
0
 62
7
100
AcDbCircle
 10
264.12479106786986
 20
226.62606890723254
 30
0
 40
3.58
  0
CIRCLE
  5
45B
330
1F
100
AcDbEntity
  8
0
 62
7
100
AcDbCircle
 10
331.12895019647021
 20
228.7486050009631
 30
0
 40
3.58
  0
LINE
  5
45C
330
1F
100
AcDbEntity
  8
0
 62
7
100
AcDbLine
 10
202.28764162937387
 20
270.24378613758853
 30
0
 11
202.29144639980086
 21
272.24378211811762
 31
0
  0
ARC
  5
45D
330
1F
100
AcDbEntity
  8
0
 62
7
100
AcDbCircle
 10
197.71145467307679
 20
272.25248747262793
 30
0
 40
4.58000000000607
100
AcDbArc
 50
359.89109598844175
 51
179.89090153998691
  0
LINE
  5
45E
330
1F
100
AcDbEntity
  8
0
 62
7
100
AcDbLine
 10
193.13146297592311
 20
272.26120837055731
 30
0
 11
193.12765820397317
 21
270.26121158923451
 31
0
  0
ARC
  5
45F
330
1F
100
AcDbEntity
  8
0
 62
7
100
AcDbCircle
 10
197.70764988977407
 20
270.25248472331094
 30
0
 40
4.57999999997765
100
AcDbArc
 50
179.89082688027128
 51
359.89118066610132
  0
LINE
  5
460
330
1F
100
AcDbEntity
  8
0
 62
7
100
AcDbLine
 10
202.47788018879419
 20
370.24360518387692
 30
0
 11
202.48168495922073
 21
372.24360116440693
 31
0
  0
ARC
  5
461
330
1F
100
AcDbEntity
  8
0
 62
7
100
AcDbCircle
 10
197.90169320730683
 20
372.25229327776577
 30
0
 40
4.58000000004768
100
AcDbArc
 50
359.89126163548713
 51
179.89073589295296
  0
LINE
  5
462
330
1F
100
AcDbEntity
  8
0
 62
7
100
AcDbLine
 10
193.32170153534344
 20
372.26102741684571
 30
0
 11
193.31789676339349
 21
370.26103063552381
 31
0
  0
ARC
  5
463
330
1F
100
AcDbEntity
  8
0
 62
7
100
AcDbCircle
 10
197.8978884319954
 20
370.25229472897553
 30
0
 40
4.57999999994081
100
AcDbArc
 50
179.89071378189183
 51
359.89129376446937
  0
LINE
  5
464
330
1F
100
AcDbEntity
  8
0
 62
7
100
AcDbLine
 10
202.59202326638979
 20
430.24346609412731
 30
0
 11
202.59582803681678
 21
432.24346207465732
 31
0
  0
ARC
  5
465
330
1F
100
AcDbEntity
  8
0
 62
7
100
AcDbCircle
 10
198.0158363476844
 20
432.2521871887995
 30
0
 40
4.57999999998379
100
AcDbArc
 50
359.89084879508817
 51
179.89114873335191
  0
LINE
  5
466
330
1F
100
AcDbEntity
  8
0
 62
7
100
AcDbLine
 10
193.43584461293949
 20
432.2608883270961
 30
0
 11
193.43203984098909
 21
430.2608915457742
 31
0
  0
ARC
  5
467
330
1F
100
AcDbEntity
  8
0
 62
7
100
AcDbCircle
 10
198.01203158990438
 20
430.25219785667304
 30
0
 40
4.58000000003904
100
AcDbArc
 50
179.89124192292209
 51
359.89076562343911
  0
ARC
  5
468
330
1F
100
AcDbEntity
  8
0
 62
7
100
AcDbCircle
 10
264.190405012836
 20
379.37622049127748
 30
0
 40
5.58
100
AcDbArc
 50
89.891003488662989
 51
269.8910141596715
  0
LINE
  5
469
330
1F
100
AcDbEntity
  8
0
 62
7
100
AcDbLine
 10
264.17979095666169
 20
373.79623058610576
 30
0
 11
266.17978635785767
 21
373.79242581678244
 31
0
  0
ARC
  5
46A
330
1F
100
AcDbEntity
  8
0
 62
7
100
AcDbCircle
 10
266.19038567048665
 20
379.37241575000206
 30
0
 40
5.58000000002312
100
AcDbArc
 50
269.89116554756578
 51
89.890831938839909
  0
LINE
  5
46B
330
1F
100
AcDbEntity
  8
0
 62
7
100
AcDbLine
 10
266.20101747300123
 20
384.95240562141151
 30
0
 11
264.20102010825121
 21
384.95621039447104
 31
0
  0
LINE
  5
46C
330
1F
100
AcDbEntity
  8
0
 62
7
100
AcDbLine
 10
147.43908613631493
 20
227.62612818193173
 30
0
 11
118.57859325407071
 21
226.11528200824813
 31
0
  0
ARC
  5
46D
330
1F
100
AcDbEntity
  8
0
 62
7
100
AcDbCircle
 10
118.83998521519425
 20
221.12211925881928
 30
0
 40
4.9999999999629
100
AcDbArc
 50
92.996697303474917
 51
182.99669730432532
  0
LINE
  5
46E
330
1F
100
AcDbEntity
  8
0
 62
7
100
AcDbLine
 10
113.84682246576904
 20
220.86072729762162
 30
0
 11
114.6309983606825
 21
205.88123883097086
 31
0
  0
ARC
  5
46F
330
1F
100
AcDbEntity
  8
0
 62
7
100
AcDbCircle
 10
119.62416109872083
 20
206.14263101039086
 30
0
 40
5
100
AcDbArc
 50
182.99669980837112
 51
272.99669730390065
  0
LINE
  5
470
330
1F
100
AcDbEntity
  8
0
 62
7
100
AcDbLine
 10
119.88555305988348
 20
201.14946826092563
 30
0
 11
174.71049223934278
 21
204.01955263265444
 31
0
  0
ARC
  5
471
330
1F
100
AcDbEntity
  8
0
 62
7
100
AcDbCircle
 10
174.44910027807373
 20
209.01271538221516
 30
0
 40
5.00000000010149
100
AcDbArc
 50
272.99669730506116
 51
2.9966973027391584
  0
LINE
  5
472
330
1F
100
AcDbEntity
  8
0
 62
7
100
AcDbLine
 10
179.44226302764491
 20
209.27410734328186
 30
0
 11
169.67927327841471
 21
395.76873603211533
 31
0
  0
ARC
  5
473
330
1F
100
AcDbEntity
  8
0
 62
7
100
AcDbCircle
 10
174.67243602768713
 20
396.03012799694187
 30
0
 40
5.00000000000002
100
AcDbArc
 50
92.996702354888455
 51
182.99669734594394
  0
LINE
  5
474
330
1F
100
AcDbEntity
  8
0
 62
7
100
AcDbLine
 10
174.41104362634542
 20
401.02329072336323
 30
0
 11
174.71062164115438
 21
401.03897362591232
 31
0
  0
ARC
  5
475
330
1F
100
AcDbEntity
  8
0
 62
7
100
AcDbCircle
 10
174.44922967995308
 20
406.03213637541211
 30
0
 40
5.00000000003686
100
AcDbArc
 50
272.99669730432225
 51
2.9966973034773439
  0
LINE
  5
476
330
1F
100
AcDbEntity
  8
0
 62
7
100
AcDbLine
 10
179.44239242945605
 20
406.29352833653974
 30
0
 11
178.65821654596857
 21
421.27301658493269
 31
0
  0
ARC
  5
477
330
1F
100
AcDbEntity
  8
0
 62
7
100
AcDbCircle
 10
173.6650537965038
 20
421.0116246237705
 30
0
 40
5
100
AcDbArc
 50
2.9966973038957239
 51
92.996704817331263
  0
LINE
  5
478
330
1F
100
AcDbEntity
  8
0
 62
7
100
AcDbLine
 10
173.40366118056727
 20
426.00478733895778
 30
0
 11
148.13827051339058
 21
424.68214468791683
 31
0
  0
ARC
  5
479
330
1F
100
AcDbEntity
  8
0
 62
7
100
AcDbCircle
 10
148.39966247455322
 20
419.6889819384516
 30
0
 40
5.00000000000002
100
AcDbArc
 50
92.99669730390066
 51
182.99669734594369
  0
LINE
  5
47A
330
1F
100
AcDbEntity
  8
0
 62
7
100
AcDbLine
 10
143.40649972528036
 20
419.42758997362506
 30
0
 11
153.16948947450965
 21
232.93296128479159
 31
0
  0
ARC
  5
47B
330
1F
100
AcDbEntity
  8
0
 62
7
100
AcDbCircle
 10
148.18264230876366
 20
232.57053150472092
 30
0
 40
4.9999999999994
100
AcDbArc
 50
261.44775189895643
 51
4.1567848933743718
  0
CIRCLE
  5
47C
330
1F
100
AcDbEntity
  8
0
 62
7
100
AcDbCircle
 10
168.43946857454875
 20
285.553206801934
 30
0
 40
3.58
  0
CIRCLE
  5
47D
330
1F
100
AcDbEntity
  8
0
 62
7
100
AcDbCircle
 10
123.47623101817544
 20
213.85455670616574
 30
0
 40
3.58
  0
LINE
  5
47E
330
1F
100
AcDbEntity
  8
0
 62
7
100
AcDbLine
 10
172.06134966685704
 20
414.91945456775028
 30
0
 11
171.95679285688948
 21
416.916720154689
 31
0
  0
ARC
  5
47F
330
1F
100
AcDbEntity
  8
0
 62
7
100
AcDbCircle
 10
166.38442374435954
 20
416.62499687172675
 30
0
 40
5.5800000000088
100
AcDbArc
 50
2.9967986270561515
 51
182.99660098971097
  0
LINE
  5
480
330
1F
100
AcDbEntity
  8
0
 62
7
100
AcDbLine
 10
160.81205362558603
 20
416.33329281022105
 30
0
 11
160.91661038454868
 21
414.33602819758761
 31
0
  0
ARC
  5
481
330
1F
100
AcDbEntity
  8
0
 62
7
100
AcDbCircle
 10
166.48897948922922
 20
414.62775163050645
 30
0
 40
5.58000000000994
100
AcDbArc
 50
182.99680016892739
 51
2.9965894299146525
  0
LINE
  5
482
330
1F
100
AcDbEntity
  8
0
 62
7
100
AcDbLine
 10
37.089927601798536
 20
234.28594818069649
 30
0
 11
65.9504204840423
 21
235.7967943543801
 31
0
  0
ARC
  5
483
330
1F
100
AcDbEntity
  8
0
 62
7
100
AcDbCircle
 10
65.689028522918761
 20
240.78995710380985
 30
0
 40
4.9999999999629
100
AcDbArc
 50
272.99669730347432
 51
2.996697304325056
  0
LINE
  5
484
330
1F
100
AcDbEntity
  8
0
 62
7
100
AcDbLine
 10
70.682191272344426
 20
241.05134906500751
 30
0
 11
69.898015377430966
 21
256.03083753165834
 31
0
  0
ARC
  5
485
330
1F
100
AcDbEntity
  8
0
 62
7
100
AcDbCircle
 10
64.904852639392175
 20
255.76944535223828
 30
0
 40
5
100
AcDbArc
 50
2.9966998083715053
 51
92.996697303895971
  0
LINE
  5
486
330
1F
100
AcDbEntity
  8
0
 62
7
100
AcDbLine
 10
64.643460678229985
 20
260.76260810170265
 30
0
 11
9.8185214987702238
 21
257.89252372997385
 31
0
  0
ARC
  5
487
330
1F
100
AcDbEntity
  8
0
 62
7
100
AcDbCircle
 10
10.079913460039734
 20
252.89936098041306
 30
0
 40
5.00000000010149
100
AcDbArc
 50
92.996697305066334
 51
182.99669730272873
  0
LINE
  5
488
330
1F
100
AcDbEntity
  8
0
 62
7
100
AcDbLine
 10
5.08675071046855
 20
252.63796901934728
 30
0
 11
14.849740459698751
 21
66.1433403305129
 31
0
  0
ARC
  5
489
330
1F
100
AcDbEntity
  8
0
 62
7
100
AcDbCircle
 10
9.8565777104258814
 20
65.881948365686355
 30
0
 40
5.00000000000002
100
AcDbArc
 50
272.9967023548885
 51
2.9966973459436725
  0
LINE
  5
48A
330
1F
100
AcDbEntity
  8
0
 62
7
100
AcDbLine
 10
10.11797011176759
 20
60.888785639265009
 30
0
 11
9.8183920969590872
 21
60.873102736715921
 31
0
  0
ARC
  5
48B
330
1F
100
AcDbEntity
  8
0
 62
7
100
AcDbCircle
 10
10.079784058160385
 20
55.879939987217043
 30
0
 40
5.00000000003686
100
AcDbArc
 50
92.996697304322836
 51
182.99669730347705
  0
LINE
  5
48C
330
1F
100
AcDbEntity
  8
0
 62
7
100
AcDbLine
 10
5.0866213086569587
 20
55.618548026089414
 30
0
 11
5.8707971921448916
 21
40.63905977769555
 31
0
  0
ARC
  5
48D
330
1F
100
AcDbEntity
  8
0
 62
7
100
AcDbCircle
 10
10.86395994160921
 20
40.900451738858649
 30
0
 40
5
100
AcDbArc
 50
182.99669730390639
 51
272.99670481733648
  0
LINE
  5
48E
330
1F
100
AcDbEntity
  8
0
 62
7
100
AcDbLine
 10
11.125352557546194
 20
35.907289023671368
 30
0
 11
36.390743224722883
 21
37.229931674712319
 31
0
  0
ARC
  5
48F
330
1F
100
AcDbEntity
  8
0
 62
7
100
AcDbCircle
 10
36.129351263560238
 20
42.223094424176637
 30
0
 40
5.00000000000002
100
AcDbArc
 50
272.99669730390121
 51
2.9966973459436725
  0
LINE
  5
490
330
1F
100
AcDbEntity
  8
0
 62
7
100
AcDbLine
 10
41.122514012833108
 20
42.48448638900318
 30
0
 11
31.359524263603362
 21
228.97911507783755
 31
0
  0
ARC
  5
491
330
1F
100
AcDbEntity
  8
0
 62
7
100
AcDbCircle
 10
36.3463714293498
 20
229.34154485790822
 30
0
 40
4.9999999999994
100
AcDbArc
 50
81.447751898954834
 51
184.156784893374
  0
CIRCLE
  5
492
330
1F
100
AcDbEntity
  8
0
 62
7
100
AcDbCircle
 10
16.089545163564708
 20
176.35886956069515
 30
0
 40
3.58
  0
CIRCLE
  5
493
330
1F
100
AcDbEntity
  8
0
 62
7
100
AcDbCircle
 10
61.052782719938023
 20
248.0575196564634
 30
0
 40
3.58
  0
LINE
  5
494
330
1F
100
AcDbEntity
  8
0
 62
7
100
AcDbLine
 10
12.467664071256422
 20
46.992621794878872
 30
0
 11
12.572220881223984
 21
44.995356207940134
 31
0
  0
ARC
  5
495
330
1F
100
AcDbEntity
  8
0
 62
7
100
AcDbCircle
 10
18.14458999375347
 20
45.2870794909024
 30
0
 40
5.5800000000088
100
AcDbArc
 50
182.99679862705639
 51
2.9966009897016552
  0
LINE
  5
496
330
1F
100
AcDbEntity
  8
0
 62
7
100
AcDbLine
 10
23.716960112526976
 20
45.578783552407188
 30
0
 11
23.612403353564787
 21
47.576048165041541
 31
0
  0
ARC
  5
497
330
1F
100
AcDbEntity
  8
0
 62
7
100
AcDbCircle
 10
18.04003424888424
 20
47.284324732121789
 30
0
 40
5.58000000000994
100
AcDbArc
 50
2.9968001689367214
 51
182.9965894299053
  0
LINE
  5
498
330
1F
100
AcDbEntity
  8
0
 62
7
100
AcDbLine
 10
104.70593328739096
 20
200.1543004557663
 30
0
 11
104.82483145422657
 21
262.65418780225377
 31
0
  0
ARC
  5
499
330
1F
100
AcDbEntity
  8
0
 62
7
100
AcDbCircle
 10
99.824840501856215
 20
262.66369965562012
 30
0
 40
4.99999999991386
100
AcDbArc
 50
359.89100212360614
 51
89.891002125586283
  0
LINE
  5
49A
330
1F
100
AcDbEntity
  8
0
 62
7
100
AcDbLine
 10
99.834352355049759
 20
267.66369060799047
 30
0
 11
84.834379279122913
 21
267.69222616824595
 31
0
  0
ARC
  5
49B
330
1F
100
AcDbEntity
  8
0
 62
7
100
AcDbCircle
 10
84.8248676441508
 20
262.69223521562367
 30
0
 40
4.99999999975005
100
AcDbArc
 50
89.891004626220649
 51
179.89100964089926
  0
LINE
  5
49C
330
1F
100
AcDbEntity
  8
0
 62
7
100
AcDbLine
 10
79.824876690696783
 20
262.70174641298331
 30
0
 11
79.555215652706011
 21
120.95200422029501
 31
0
  0
ARC
  5
49D
330
1F
100
AcDbEntity
  8
0
 62
7
100
AcDbCircle
 10
84.555206603918577
 20
120.94249171323025
 30
0
 40
5
100
AcDbArc
 50
179.89099463276247
 51
269.89100212460323
  0
LINE
  5
49E
330
1F
100
AcDbEntity
  8
0
 62
7
100
AcDbLine
 10
84.545694750639086
 20
115.94250076077441
 30
0
 11
278.04534461070671
 21
115.57439203884694
 31
0
  0
ARC
  5
49F
330
1F
100
AcDbEntity
  8
0
 62
7
100
AcDbCircle
 10
278.05485646380794
 20
120.57438299148286
 30
0
 40
5.00000000017931
100
AcDbArc
 50
269.89100212664988
 51
359.8910021225488
  0
LINE
  5
4A0
330
1F
100
AcDbEntity
  8
0
 62
7
100
AcDbLine
 10
283.05484741644295
 20
120.56487113802375
 30
0
 11
283.18658658436789
 21
189.81474582954633
 31
0
  0
ARC
  5
4A1
330
1F
100
AcDbEntity
  8
0
 62
7
100
AcDbCircle
 10
278.18659563164783
 20
189.82425768256343
 30
0
 40
5.00000000026307
100
AcDbArc
 50
359.89100212761576
 51
89.89100212158661
  0
LINE
  5
4A2
330
1F
100
AcDbEntity
  8
0
 62
7
100
AcDbLine
 10
278.19610748519108
 20
194.82424863528212
 30
0
 11
246.94616403600594
 21
194.88369771827382
 31
0
  0
ARC
  5
4A3
330
1F
100
AcDbEntity
  8
0
 62
7
100
AcDbCircle
 10
246.95567588561744
 20
199.88368867073785
 30
0
 40
5.00000000000002
100
AcDbArc
 50
179.89100212459809
 51
269.89100216663547
  0
LINE
  5
4A4
330
1F
100
AcDbEntity
  8
0
 62
7
100
AcDbLine
 10
241.95568493316114
 20
199.8932005240178
 30
0
 11
241.97237822405577
 21
208.66817854207437
 31
0
  0
ARC
  5
4A5
330
1F
100
AcDbEntity
  8
0
 62
7
100
AcDbCircle
 10
236.97238727192189
 20
208.67769039567537
 30
0
 40
4.99999999967752
100
AcDbArc
 50
359.89100212091205
 51
89.891002128285677
  0
LINE
  5
4A6
330
1F
100
AcDbEntity
  8
0
 62
7
100
AcDbLine
 10
236.98189912487942
 20
213.67768134781016
 30
0
 11
201.98196223912782
 21
213.74426432118452
 31
0
  0
ARC
  5
4A7
330
1F
100
AcDbEntity
  8
0
 62
7
100
AcDbCircle
 10
201.97245060440355
 20
208.74427336831212
 30
0
 40
5
100
AcDbArc
 50
89.8910046290661
 51
179.89100212459809
  0
LINE
  5
4A8
330
1F
100
AcDbEntity
  8
0
 62
7
100
AcDbLine
 10
196.97245965194725
 20
208.75378522159207
 30
0
 11
196.95576636063652
 21
199.97880698497755
 31
0
  0
ARC
  5
4A9
330
1F
100
AcDbEntity
  8
0
 62
7
100
AcDbCircle
 10
191.95577540859585
 20
199.98831905681544
 30
0
 40
5
100
AcDbArc
 50
269.89100212459806
 51
359.890999620104
  0
LINE
  5
4AA
330
1F
100
AcDbEntity
  8
0
 62
7
100
AcDbLine
 10
191.94626355531591
 20
194.98832810435869
 30
0
 11
109.69641239107341
 21
195.14479809080439
 31
0
  0
ARC
  5
4AB
330
1F
100
AcDbEntity
  8
0
 62
7
100
AcDbCircle
 10
109.70592424068582
 20
200.14478904326751
 30
0
 40
5.00000000000002
100
AcDbArc
 50
179.89100717558713
 51
269.891002166625
  0
CIRCLE
  5
4AC
330
1F
100
AcDbEntity
  8
0
 62
7
100
AcDbCircle
 10
89.060592174068915
 20
255.18416371140046
 30
0
 40
3.58
  0
CIRCLE
  5
4AD
330
1F
100
AcDbEntity
  8
0
 62
7
100
AcDbCircle
 10
86.669820816922766
 20
181.18857794901959
 30
0
 40
3.58
  0
CIRCLE
  5
4AE
330
1F
100
AcDbEntity
  8
0
 62
7
100
AcDbCircle
 10
134.683050555097
 20
188.09725149097284
 30
0
 40
2.58
  0
CIRCLE
  5
4AF
330
1F
100
AcDbEntity
  8
0
 62
7
100
AcDbCircle
 10
275.56437284103822
 20
125.57912987039906
 30
0
 40
3.58
  0
CIRCLE
  5
4B0
330
1F
100
AcDbEntity
  8
0
 62
7
100
AcDbCircle
 10
245.5644271262986
 20
125.63620099007782
 30
0
 40
4.58
  0
CIRCLE
  5
4B1
330
1F
100
AcDbEntity
  8
0
 62
7
100
AcDbCircle
 10
162.56457731552018
 20
125.7940977545224
 30
0
 40
4.58
  0
CIRCLE
  5
4B2
330
1F
100
AcDbEntity
  8
0
 62
7
100
AcDbCircle
 10
92.564703981128787
 20
125.92726370043982
 30
0
 40
4.58
  0
ARC
  5
4B3
330
1F
100
AcDbEntity
  8
0
 62
7
100
AcDbCircle
 10
219.43246915333475
 20
187.71101941265823
 30
0
 40
5.58000000000002
100
AcDbArc
 50
179.89100236132481
 51
359.89101699881917
  0
LINE
  5
4B4
330
1F
100
AcDbEntity
  8
0
 62
7
100
AcDbLine
 10
225.0124590590317
 20
187.70040563298625
 30
0
 11
225.01626379847994
 21
189.70040103423815
 31
0
  0
ARC
  5
4B5
330
1F
100
AcDbEntity
  8
0
 62
7
100
AcDbCircle
 10
219.43627391387736
 20
189.7110259025232
 30
0
 40
5.57999999999129
100
AcDbArc
 50
359.89090314005949
 51
179.89110611811014
  0
LINE
  5
4B6
330
1F
100
AcDbEntity
  8
0
 62
7
100
AcDbLine
 10
213.856283991669
 20
189.72163100293909
 30
0
 11
213.852479250349
 21
187.72163461786403
 31
0
  0
LINE
  5
4B7
330
1F
100
AcDbEntity
  8
0
 62
7
100
AcDbLine
 10
41.69757579217594
 20
31.499528100036695
 30
0
 11
12.837082909931723
 21
29.988681926353095
 31
0
  0
ARC
  5
4B8
330
1F
100
AcDbEntity
  8
0
 62
7
100
AcDbCircle
 10
13.098474871055259
 20
24.995519176923338
 30
0
 40
4.9999999999629
100
AcDbArc
 50
92.996697303474377
 51
182.99669730432532
  0
LINE
  5
4B9
330
1F
100
AcDbEntity
  8
0
 62
7
100
AcDbLine
 10
8.10531212163005
 20
24.734127215725678
 30
0
 11
8.889488016543055
 21
9.7546387490749122
 31
0
  0
ARC
  5
4BA
330
1F
100
AcDbEntity
  8
0
 62
7
100
AcDbCircle
 10
13.882650754581846
 20
10.016030928494912
 30
0
 40
5
100
AcDbArc
 50
182.99669980837083
 51
272.99669730390121
  0
LINE
  5
4BB
330
1F
100
AcDbEntity
  8
0
 62
7
100
AcDbLine
 10
14.14404271574449
 20
5.0228681790305947
 30
0
 11
68.9689818952038
 21
7.8929525507593992
 31
0
  0
ARC
  5
4BC
330
1F
100
AcDbEntity
  8
0
 62
7
100
AcDbCircle
 10
68.707589933934742
 20
12.886115300320123
 30
0
 40
5.00000000010149
100
AcDbArc
 50
272.99669730506116
 51
2.9966973027287507
  0
LINE
  5
4BD
330
1F
100
AcDbEntity
  8
0
 62
7
100
AcDbLine
 10
73.700752683505925
 20
13.147507261385906
 30
0
 11
63.937762934275725
 21
199.64213595022028
 31
0
  0
ARC
  5
4BE
330
1F
100
AcDbEntity
  8
0
 62
7
100
AcDbCircle
 10
68.930925683548139
 20
199.90352791504682
 30
0
 40
5.00000000000002
100
AcDbArc
 50
92.996702354888455
 51
182.99669734594394
  0
LINE
  5
4BF
330
1F
100
AcDbEntity
  8
0
 62
7
100
AcDbLine
 10
68.66953328220643
 20
204.89669064146818
 30
0
 11
68.969111297015388
 21
204.91237354401727
 31
0
  0
ARC
  5
4C0
330
1F
100
AcDbEntity
  8
0
 62
7
100
AcDbCircle
 10
68.707719335813636
 20
209.90553629351615
 30
0
 40
5.00000000003686
100
AcDbArc
 50
272.99669730432805
 51
2.9966973034770716
  0
LINE
  5
4C1
330
1F
100
AcDbEntity
  8
0
 62
7
100
AcDbLine
 10
73.700882085317062
 20
210.16692825464378
 30
0
 11
72.916706201829129
 21
225.14641650303764
 31
0
  0
ARC
  5
4C2
330
1F
100
AcDbEntity
  8
0
 62
7
100
AcDbCircle
 10
67.923543452364811
 20
224.88502454187454
 30
0
 40
5
100
AcDbArc
 50
2.9966973039064042
 51
92.996704817331263
  0
LINE
  5
4C3
330
1F
100
AcDbEntity
  8
0
 62
7
100
AcDbLine
 10
67.662150836428282
 20
229.87818725706182
 30
0
 11
42.396760169251593
 21
228.55554460602087
 31
0
  0
ARC
  5
4C4
330
1F
100
AcDbEntity
  8
0
 62
7
100
AcDbCircle
 10
42.658152130414237
 20
223.56238185655656
 30
0
 40
5.00000000000002
100
AcDbArc
 50
92.996697303901215
 51
182.99669734594369
  0
LINE
  5
4C5
330
1F
100
AcDbEntity
  8
0
 62
7
100
AcDbLine
 10
37.664989381141368
 20
223.30098989173
 30
0
 11
47.427979130370659
 21
36.806361202895644
 31
0
  0
ARC
  5
4C6
330
1F
100
AcDbEntity
  8
0
 62
7
100
AcDbCircle
 10
42.441131964624674
 20
36.443931422824974
 30
0
 40
4.9999999999994
100
AcDbArc
 50
261.44775189895483
 51
4.1567848933743718
  0
CIRCLE
  5
4C7
330
1F
100
AcDbEntity
  8
0
 62
7
100
AcDbCircle
 10
62.697958230409768
 20
89.426606720038023
 30
0
 40
3.58
  0
CIRCLE
  5
4C8
330
1F
100
AcDbEntity
  8
0
 62
7
100
AcDbCircle
 10
17.734720674036453
 20
17.727956624269794
 30
0
 40
3.58
  0
LINE
  5
4C9
330
1F
100
AcDbEntity
  8
0
 62
7
100
AcDbLine
 10
66.319839322718053
 20
218.79285448585432
 30
0
 11
66.215282512750491
 21
220.79012007279306
 31
0
  0
ARC
  5
4CA
330
1F
100
AcDbEntity
  8
0
 62
7
100
AcDbCircle
 10
60.64291340022055
 20
220.49839678983079
 30
0
 40
5.5800000000088
100
AcDbArc
 50
2.9967986270561515
 51
182.99660098970165
  0
LINE
  5
4CB
330
1F
100
AcDbEntity
  8
0
 62
7
100
AcDbLine
 10
55.070543281447044
 20
220.206692728326
 30
0
 11
55.175100040409689
 21
218.20942811569165
 31
0
  0
ARC
  5
4CC
330
1F
100
AcDbEntity
  8
0
 62
7
100
AcDbCircle
 10
60.747469145090236
 20
218.5011515486114
 30
0
 40
5.58000000000994
100
AcDbArc
 50
182.99680016893672
 51
2.9965894299053271
  0
LINE
  5
4CD
330
1F
100
AcDbEntity
  8
0
 62
7
100
AcDbLine
 10
557.1283208497639
 20
203.40001210003643
 30
0
 11
557.12832084971342
 21
174.49999989300446
 31
0
  0
ARC
  5
4CE
330
1F
100
AcDbEntity
  8
0
 62
7
100
AcDbCircle
 10
562.12832084967658
 20
174.49999989295807
 30
0
 40
4.9999999999629
100
AcDbArc
 50
179.99999999946849
 51
270.0000000003231
  0
LINE
  5
4CF
330
1F
100
AcDbEntity
  8
0
 62
7
100
AcDbLine
 10
562.12832084970478
 20
169.49999989299536
 30
0
 11
577.1283210682609
 21
169.499999892969
 31
0
  0
ARC
  5
4D0
330
1F
100
AcDbEntity
  8
0
 62
7
100
AcDbCircle
 10
577.12832084971342
 20
174.499999892969
 30
0
 40
5
100
AcDbArc
 50
270.00000250436966
 51
359.99999999990621
  0
LINE
  5
4D1
330
1F
100
AcDbEntity
  8
0
 62
7
100
AcDbLine
 10
582.12832084971342
 20
174.4999998929608
 30
0
 11
582.12832084980937
 21
229.40001209999278
 31
0
  0
ARC
  5
4D2
330
1F
100
AcDbEntity
  8
0
 62
7
100
AcDbCircle
 10
577.128320849708
 20
229.4000120999
 30
0
 40
5.00000000010149
100
AcDbArc
 50
1.063048241160844E-09
 51
89.999999998738929
  0
LINE
  5
4D3
330
1F
100
AcDbEntity
  8
0
 62
7
100
AcDbLine
 10
577.128320849818
 20
234.40001210000096
 30
0
 11
390.37832085348737
 21
234.40001210032656
 31
0
  0
ARC
  5
4D4
330
1F
100
AcDbEntity
  8
0
 62
7
100
AcDbCircle
 10
390.37832084982711
 20
239.40001210032656
 30
0
 40
5.00000000000002
100
AcDbArc
 50
180.00000505089653
 51
270.00000004194351
  0
LINE
  5
4D5
330
1F
100
AcDbEntity
  8
0
 62
7
100
AcDbLine
 10
385.37832084982711
 20
239.40001165955269
 30
0
 11
385.37832084982756
 21
239.69999989330441
 31
0
  0
ARC
  5
4D6
330
1F
100
AcDbEntity
  8
0
 62
7
100
AcDbCircle
 10
380.37832084979027
 20
239.69999989327621
 30
0
 40
5.00000000003686
100
AcDbArc
 50
3.230832889843997E-10
 51
89.9999999994737
  0
LINE
  5
4D7
330
1F
100
AcDbEntity
  8
0
 62
7
100
AcDbLine
 10
380.3783208498362
 20
244.69999989331259
 30
0
 11
365.3783208498362
 21
244.69999989333897
 31
0
  0
ARC
  5
4D8
330
1F
100
AcDbEntity
  8
0
 62
7
100
AcDbCircle
 10
365.37832084982756
 20
239.69999989333897
 30
0
 40
5
100
AcDbArc
 50
89.999999999901
 51
180.00000751333314
  0
LINE
  5
4D9
330
1F
100
AcDbEntity
  8
0
 62
7
100
AcDbLine
 10
360.37832084982756
 20
239.69999923767696
 30
0
 11
360.37832084978345
 21
214.40001210037931
 31
0
  0
ARC
  5
4DA
330
1F
100
AcDbEntity
  8
0
 62
7
100
AcDbCircle
 10
365.37832084978345
 20
214.40001210037113
 30
0
 40
5.00000000000002
100
AcDbArc
 50
179.99999999990621
 51
270.00000004194351
  0
LINE
  5
4DB
330
1F
100
AcDbEntity
  8
0
 62
7
100
AcDbLine
 10
365.37832085344371
 20
209.40001210037113
 30
0
 11
552.12832084977435
 21
209.40001210004462
 31
0
  0
ARC
  5
4DC
330
1F
100
AcDbEntity
  8
0
 62
7
100
AcDbCircle
 10
552.2295506730602
 20
204.40103695278972
 30
0
 40
4.9999999999994
100
AcDbArc
 50
348.45105459496523
 51
91.160087589373447
  0
CIRCLE
  5
4DD
330
1F
100
AcDbEntity
  8
0
 62
7
100
AcDbCircle
 10
500.37832084980573
 20
227.40001210013466
 30
0
 40
3.58
  0
CIRCLE
  5
4DE
330
1F
100
AcDbEntity
  8
0
 62
7
100
AcDbCircle
 10
569.62832084972115
 20
178.7499693754045
 30
0
 40
3.58
  0
LINE
  5
4DF
330
1F
100
AcDbEntity
  8
0
 62
7
100
AcDbLine
 10
371.37832109373403
 20
237.7799998933298
 30
0
 11
369.37832060591427
 21
237.77999989333344
 31
0
  0
ARC
  5
4E0
330
1F
100
AcDbEntity
  8
0
 62
7
100
AcDbCircle
 10
369.3783304737035
 20
232.19999989333351
 30
0
 40
5.5800000000088
100
AcDbArc
 50
90.000101323060221
 51
269.999903685702
  0
LINE
  5
4E1
330
1F
100
AcDbEntity
  8
0
 62
7
100
AcDbLine
 10
369.37832109371448
 20
226.61999989333177
 30
0
 11
371.37832060589562
 21
226.61999989332904
 31
0
  0
ARC
  5
4E2
330
1F
100
AcDbEntity
  8
0
 62
7
100
AcDbCircle
 10
371.37831058794427
 20
232.19999989332987
 30
0
 40
5.58000000000994
100
AcDbArc
 50
270.00010286493404
 51
89.999892125911529
  0
LINE
  5
4E3
330
1F
100
AcDbEntity
  8
0
 62
7
100
AcDbLine
 10
345.12835084976405
 20
48.275024100035971
 30
0
 11
345.12835084976405
 21
110.77502454081802
 31
0
  0
ARC
  5
4E4
330
1F
100
AcDbEntity
  8
0
 62
7
100
AcDbCircle
 10
350.1283508494962
 20
110.77502454108632
 30
0
 40
4.99999999973235
100
AcDbArc
 50
89.999999996930711
 51
180.00000000307449
  0
LINE
  5
4E5
330
1F
100
AcDbEntity
  8
0
 62
7
100
AcDbLine
 10
350.12835084976405
 20
115.77502454081802
 30
0
 11
452.37835106643615
 21
115.77502454081802
 31
0
  0
ARC
  5
4E6
330
1F
100
AcDbEntity
  8
0
 62
7
100
AcDbCircle
 10
452.37835084976405
 20
110.77502454081802
 30
0
 40
5
100
AcDbArc
 50
0
 51
89.999997517120562
  0
LINE
  5
4E7
330
1F
100
AcDbEntity
  8
0
 62
7
100
AcDbLine
 10
457.37835084976405
 20
110.77502454081802
 30
0
 11
457.37835084976496
 21
102.0000003374909
 31
0
  0
ARC
  5
4E8
330
1F
100
AcDbEntity
  8
0
 62
7
100
AcDbCircle
 10
462.37835084976496
 20
102.00000012675643
 30
0
 40
5
100
AcDbArc
 50
179.99999758516086
 51
270
  0
LINE
  5
4E9
330
1F
100
AcDbEntity
  8
0
 62
7
100
AcDbLine
 10
462.37835084976496
 20
97.000000126756433
 30
0
 11
497.37835084609515
 21
97.000000126756419
 31
0
  0
ARC
  5
4EA
330
1F
100
AcDbEntity
  8
0
 62
7
100
AcDbCircle
 10
497.37835084976405
 20
102.00000012675642
 30
0
 40
5.00000000000002
100
AcDbArc
 50
269.99999995795747
 51
0
  0
LINE
  5
4EB
330
1F
100
AcDbEntity
  8
0
 62
7
100
AcDbLine
 10
502.37835084976405
 20
102.00000012675642
 30
0
 11
502.37835084976405
 21
110.77502454081801
 31
0
  0
ARC
  5
4EC
330
1F
100
AcDbEntity
  8
0
 62
7
100
AcDbCircle
 10
507.37835084963808
 20
110.77502454094443
 30
0
 40
4.99999999987383
100
AcDbArc
 50
89.99999999854613
 51
180.00000000144865
  0
LINE
  5
4ED
330
1F
100
AcDbEntity
  8
0
 62
7
100
AcDbLine
 10
507.37835084976496
 20
115.77502454081801
 30
0
 11
546.12832032851884
 21
115.77502454081801
 31
0
  0
ARC
  5
4EE
330
1F
100
AcDbEntity
  8
0
 62
7
100
AcDbCircle
 10
546.12832033255017
 20
120.77502454045421
 30
0
 40
4.99999999963572
100
AcDbArc
 50
269.99999995380432
 51
359.99999495318889
  0
LINE
  5
4EF
330
1F
100
AcDbEntity
  8
0
 62
7
100
AcDbLine
 10
551.12832033218592
 20
120.77502410003686
 30
0
 11
551.12832033218592
 21
196.77502388703229
 31
0
  0
ARC
  5
4F0
330
1F
100
AcDbEntity
  8
0
 62
7
100
AcDbCircle
 10
546.12832033218592
 20
196.775024540818
 30
0
 40
5
100
AcDbArc
 50
359.99999250816751
 51
90
  0
LINE
  5
4F1
330
1F
100
AcDbEntity
  8
0
 62
7
100
AcDbLine
 10
546.12832033218592
 20
201.775024540818
 30
0
 11
325.12835084976405
 21
201.77502454081804
 31
0
  0
ARC
  5
4F2
330
1F
100
AcDbEntity
  8
0
 62
7
100
AcDbCircle
 10
325.12835084961625
 20
196.77502454096629
 30
0
 40
4.99999999985213
100
AcDbArc
 50
89.999999998306421
 51
180.00000000169879
  0
LINE
  5
4F3
330
1F
100
AcDbEntity
  8
0
 62
7
100
AcDbLine
 10
320.12835084976405
 20
196.77502454081804
 30
0
 11
320.12835084976405
 21
48.2750247515525
 31
0
  0
ARC
  5
4F4
330
1F
100
AcDbEntity
  8
0
 62
7
100
AcDbCircle
 10
325.12835084976405
 20
48.275024540818031
 30
0
 40
5
100
AcDbArc
 50
179.99999758516086
 51
269.99999758516083
  0
LINE
  5
4F5
330
1F
100
AcDbEntity
  8
0
 62
7
100
AcDbLine
 10
325.12835063902958
 20
43.275024540818031
 30
0
 11
340.12835084976405
 21
43.275024540818031
 31
0
  0
ARC
  5
4F6
330
1F
100
AcDbEntity
  8
0
 62
7
100
AcDbCircle
 10
340.12835084976405
 20
48.275024540818031
 30
0
 40
5.00000000000002
100
AcDbArc
 50
270
 51
359.99999494900965
  0
CIRCLE
  5
4F7
330
1F
100
AcDbEntity
  8
0
 62
7
100
AcDbCircle
 10
536.12832033218592
 20
122.77502454081801
 30
0
 40
3.58
  0
CIRCLE
  5
4F8
330
1F
100
AcDbEntity
  8
0
 62
7
100
AcDbCircle
 10
541.77834474624888
 20
166.57502759257582
 30
0
 40
3.58
  0
CIRCLE
  5
4F9
330
1F
100
AcDbEntity
  8
0
 62
7
100
AcDbCircle
 10
327.12835084976405
 20
122.77502454081802
 30
0
 40
3.58
  0
CIRCLE
  5
4FA
330
1F
100
AcDbEntity
  8
0
 62
7
100
AcDbCircle
 10
329.37835084976405
 20
55.775024540818031
 30
0
 40
3.58
  0
LINE
  5
4FB
330
1F
100
AcDbEntity
  8
0
 62
7
100
AcDbLine
 10
370.62835104996293
 20
184.69503979960805
 30
0
 11
372.62835064956607
 21
184.69503979960805
 31
0
  0
ARC
  5
4FC
330
1F
100
AcDbEntity
  8
0
 62
7
100
AcDbCircle
 10
372.62834307804133
 20
189.27503979960798
 30
0
 40
4.58000000000607
100
AcDbArc
 50
270.00009471974073
 51
89.999900271296383
  0
LINE
  5
4FD
330
1F
100
AcDbEntity
  8
0
 62
7
100
AcDbLine
 10
372.62835104996293
 20
193.855039799607
 30
0
 11
370.62835064956607
 21
193.855039799607
 31
0
  0
ARC
  5
4FE
330
1F
100
AcDbEntity
  8
0
 62
7
100
AcDbCircle
 10
370.62833670963846
 20
189.27503979960707
 30
0
 40
4.57999999997765
100
AcDbArc
 50
89.999825611567928
 51
270.00017939739496
  0
LINE
  5
4FF
330
1F
100
AcDbEntity
  8
0
 62
7
100
AcDbLine
 10
470.62835104996293
 20
184.69503979960805
 30
0
 11
472.62835064956607
 21
184.69503979960805
 31
0
  0
ARC
  5
500
330
1F
100
AcDbEntity
  8
0
 62
7
100
AcDbCircle
 10
472.62832983686621
 20
189.27503979960798
 30
0
 40
4.58000000004768
100
AcDbArc
 50
270.00026036678213
 51
89.999734624254984
  0
LINE
  5
501
330
1F
100
AcDbEntity
  8
0
 62
7
100
AcDbLine
 10
472.62835104996293
 20
193.855039799607
 30
0
 11
470.62835064956607
 21
193.855039799607
 31
0
  0
ARC
  5
502
330
1F
100
AcDbEntity
  8
0
 62
7
100
AcDbCircle
 10
470.62832766899828
 20
189.27503979960707
 30
0
 40
4.57999999994081
100
AcDbArc
 50
89.999712513199725
 51
270.00029249576318
  0
LINE
  5
503
330
1F
100
AcDbEntity
  8
0
 62
7
100
AcDbLine
 10
530.62832053238526
 20
184.69503979960805
 30
0
 11
532.628320131988
 21
184.69503979960805
 31
0
  0
ARC
  5
504
330
1F
100
AcDbEntity
  8
0
 62
7
100
AcDbCircle
 10
532.628332320131
 20
189.27503979960707
 30
0
 40
4.57999999998379
100
AcDbArc
 50
269.999847526385
 51
90.000147464646417
  0
LINE
  5
505
330
1F
100
AcDbEntity
  8
0
 62
7
100
AcDbLine
 10
532.62832053238526
 20
193.855039799607
 30
0
 11
530.628320131988
 21
193.855039799607
 31
0
  0
ARC
  5
506
330
1F
100
AcDbEntity
  8
0
 62
7
100
AcDbCircle
 10
530.62833936894322
 20
189.27503979960798
 30
0
 40
4.58000000003904
100
AcDbArc
 50
90.000240654224356
 51
269.99976435474423
  0
ARC
  5
507
330
1F
100
AcDbEntity
  8
0
 62
7
100
AcDbCircle
 10
479.87835084976405
 20
123.00000040246792
 30
0
 40
5.58
100
AcDbArc
 50
2.2199695665622993E-06
 51
180.00001289096346
  0
LINE
  5
508
330
1F
100
AcDbEntity
  8
0
 62
7
100
AcDbLine
 10
474.29835084976412
 20
122.99999914702508
 30
0
 11
474.29835084976503
 21
121.00000012675642
 31
0
  0
ARC
  5
509
330
1F
100
AcDbEntity
  8
0
 62
7
100
AcDbCircle
 10
479.87835084976496
 20
121.00001612577231
 30
0
 40
5.58000000002312
100
AcDbArc
 50
180.00016427886857
 51
359.99983067013937
  0
LINE
  5
50A
330
1F
100
AcDbEntity
  8
0
 62
7
100
AcDbLine
 10
485.458350849764
 20
120.99999963484348
 30
0
 11
485.458350849764
 21
123.00000061866936
 31
0
  0
LINE
  5
50B
330
1F
100
AcDbEntity
  8
0
 62
7
100
AcDbLine
 10
289.12835084976405
 20
158.5000001000364
 30
0
 11
289.12835084965491
 21
95.999999659254328
 31
0
  0
ARC
  5
50C
330
1F
100
AcDbEntity
  8
0
 62
7
100
AcDbCircle
 10
284.12835084992275
 20
95.999999658995122
 30
0
 40
4.99999999973235
100
AcDbArc
 50
269.99999999683172
 51
2.9702818505217164E-09
  0
LINE
  5
50D
330
1F
100
AcDbEntity
  8
0
 62
7
100
AcDbLine
 10
284.12835084964627
 20
90.999999659262514
 30
0
 11
181.87835063297416
 21
90.9999996594417
 31
0
  0
ARC
  5
50E
330
1F
100
AcDbEntity
  8
0
 62
7
100
AcDbCircle
 10
181.87835084965491
 20
95.9999996594417
 30
0
 40
5
100
AcDbArc
 50
179.99999999990621
 51
269.99999751702154
  0
LINE
  5
50F
330
1F
100
AcDbEntity
  8
0
 62
7
100
AcDbLine
 10
176.87835084965491
 20
95.999999659449884
 30
0
 11
176.87835084966946
 21
104.77502386277791
 31
0
  0
ARC
  5
510
330
1F
100
AcDbEntity
  8
0
 62
7
100
AcDbCircle
 10
171.87835084966946
 20
104.77502407352057
 30
0
 40
5
100
AcDbArc
 50
359.99999758506709
 51
89.999999999901
  0
LINE
  5
511
330
1F
100
AcDbEntity
  8
0
 62
7
100
AcDbLine
 10
171.8783508496781
 20
109.77502407352057
 30
0
 11
136.87835085334791
 21
109.77502407358241
 31
0
  0
ARC
  5
512
330
1F
100
AcDbEntity
  8
0
 62
7
100
AcDbCircle
 10
136.87835084967037
 20
104.77502407358241
 30
0
 40
5.00000000000002
100
AcDbArc
 50
89.999999957858478
 51
179.99999999990621
  0
LINE
  5
513
330
1F
100
AcDbEntity
  8
0
 62
7
100
AcDbLine
 10
131.87835084967037
 20
104.7750240735906
 30
0
 11
131.87835084965491
 21
95.99999965952901
 31
0
  0
ARC
  5
514
330
1F
100
AcDbEntity
  8
0
 62
7
100
AcDbCircle
 10
126.87835084978087
 20
95.999999659411685
 30
0
 40
4.99999999987383
100
AcDbArc
 50
269.99999999844715
 51
1.3444433638822058E-09
  0
LINE
  5
515
330
1F
100
AcDbEntity
  8
0
 62
7
100
AcDbLine
 10
126.87835084964536
 20
90.9999996595372
 30
0
 11
88.12838137089102
 21
90.999999659605407
 31
0
  0
ARC
  5
516
330
1F
100
AcDbEntity
  8
0
 62
7
100
AcDbCircle
 10
88.1283813668515
 20
85.9999996599692
 30
0
 40
4.99999999963572
100
AcDbArc
 50
89.9999999537105
 51
179.9999949530951
  0
LINE
  5
517
330
1F
100
AcDbEntity
  8
0
 62
7
100
AcDbLine
 10
83.128381367215752
 20
86.000000100394743
 30
0
 11
83.128381367082966
 21
10.000000313400228
 31
0
  0
ARC
  5
518
330
1F
100
AcDbEntity
  8
0
 62
7
100
AcDbCircle
 10
88.128381367082966
 20
9.9999996596054146
 30
0
 40
5
100
AcDbArc
 50
179.99999250806329
 51
269.999999999901
  0
LINE
  5
519
330
1F
100
AcDbEntity
  8
0
 62
7
100
AcDbLine
 10
88.128381367074326
 20
4.9999996596054164
 30
0
 11
309.1283508494962
 21
4.9999996592197764
 31
0
  0
ARC
  5
51A
330
1F
100
AcDbEntity
  8
0
 62
7
100
AcDbCircle
 10
309.12835084965263
 20
9.9999996590715288
 30
0
 40
4.99999999985213
100
AcDbArc
 50
269.99999999820739
 51
1.59457236182074E-09
  0
LINE
  5
51B
330
1F
100
AcDbEntity
  8
0
 62
7
100
AcDbLine
 10
314.12835084950484
 20
9.9999996592106815
 30
0
 11
314.12835084976405
 21
158.49999944847622
 31
0
  0
ARC
  5
51C
330
1F
100
AcDbEntity
  8
0
 62
7
100
AcDbCircle
 10
309.12835084976405
 20
158.49999965921887
 30
0
 40
5
100
AcDbArc
 50
359.99999758506709
 51
89.999997585061848
  0
LINE
  5
51D
330
1F
100
AcDbEntity
  8
0
 62
7
100
AcDbLine
 10
309.12835106050716
 20
163.49999965921887
 30
0
 11
294.12835084977269
 21
163.49999965924525
 31
0
  0
ARC
  5
51E
330
1F
100
AcDbEntity
  8
0
 62
7
100
AcDbCircle
 10
294.12835084976405
 20
158.49999965924525
 30
0
 40
5.00000000000002
100
AcDbArc
 50
89.999999999901
 51
179.99999494890542
  0
CIRCLE
  5
51F
330
1F
100
AcDbEntity
  8
0
 62
7
100
AcDbCircle
 10
98.128381367212114
 20
83.999999659587218
 30
0
 40
3.58
  0
CIRCLE
  5
520
330
1F
100
AcDbEntity
  8
0
 62
7
100
AcDbCircle
 10
92.478356953072762
 20
40.199996607839417
 30
0
 40
3.58
  0
CIRCLE
  5
521
330
1F
100
AcDbEntity
  8
0
 62
7
100
AcDbCircle
 10
307.128350849634
 20
83.9999996592225
 30
0
 40
3.58
  0
CIRCLE
  5
522
330
1F
100
AcDbEntity
  8
0
 62
7
100
AcDbCircle
 10
304.87835084975086
 20
150.99999965922706
 30
0
 40
3.58
  0
LINE
  5
523
330
1F
100
AcDbEntity
  8
0
 62
7
100
AcDbLine
 10
263.62835064932688
 20
22.079984400508863
 30
0
 11
261.62835104972373
 21
22.0799844005125
 31
0
  0
ARC
  5
524
330
1F
100
AcDbEntity
  8
0
 62
7
100
AcDbCircle
 10
261.62835862124075
 20
17.499984400512574
 30
0
 40
4.58000000000607
100
AcDbArc
 50
90.000094719644025
 51
269.99990027119395
  0
LINE
  5
525
330
1F
100
AcDbEntity
  8
0
 62
7
100
AcDbLine
 10
261.62835064931096
 20
12.919984400513552
 30
0
 11
263.62835104970782
 21
12.919984400509914
 31
0
  0
ARC
  5
526
330
1F
100
AcDbEntity
  8
0
 62
7
100
AcDbCircle
 10
263.62836498964361
 20
17.499984400509845
 30
0
 40
4.57999999997765
100
AcDbArc
 50
269.99982561146555
 51
90.000179397298254
  0
LINE
  5
527
330
1F
100
AcDbEntity
  8
0
 62
7
100
AcDbLine
 10
163.62835064932688
 20
22.07998440068349
 30
0
 11
161.62835104972373
 21
22.079984400687128
 31
0
  0
ARC
  5
528
330
1F
100
AcDbEntity
  8
0
 62
7
100
AcDbCircle
 10
161.62837186241586
 20
17.4999844006872
 30
0
 40
4.58000000004768
100
AcDbArc
 50
90.000260366685424
 51
269.99973462415255
  0
LINE
  5
529
330
1F
100
AcDbEntity
  8
0
 62
7
100
AcDbLine
 10
161.62835064931096
 20
12.919984400688183
 30
0
 11
163.62835104970782
 21
12.919984400684545
 31
0
  0
ARC
  5
52A
330
1F
100
AcDbEntity
  8
0
 62
7
100
AcDbCircle
 10
163.62837403028379
 20
17.499984400684472
 30
0
 40
4.57999999994081
100
AcDbArc
 50
269.99971251309734
 51
90.000292495666457
  0
LINE
  5
52B
330
1F
100
AcDbEntity
  8
0
 62
7
100
AcDbLine
 10
103.628381166905
 20
22.079984400788085
 30
0
 11
101.62838156730186
 21
22.079984400791723
 31
0
  0
ARC
  5
52C
330
1F
100
AcDbEntity
  8
0
 62
7
100
AcDbCircle
 10
101.62836937915108
 20
17.499984400792705
 30
0
 40
4.57999999998379
100
AcDbArc
 50
89.9998475262883
 51
270.00014746454968
  0
LINE
  5
52D
330
1F
100
AcDbEntity
  8
0
 62
7
100
AcDbLine
 10
101.62838116688908
 20
12.919984400792778
 30
0
 11
103.62838156728594
 21
12.91998440078914
 31
0
  0
ARC
  5
52E
330
1F
100
AcDbEntity
  8
0
 62
7
100
AcDbCircle
 10
103.62836233033886
 20
17.499984400788158
 30
0
 40
4.58000000003904
100
AcDbArc
 50
270.00024065412197
 51
89.999764354641826
  0
ARC
  5
52F
330
1F
100
AcDbEntity
  8
0
 62
7
100
AcDbCircle
 10
154.37835084963353
 20
83.775023797839083
 30
0
 40
5.58
100
AcDbArc
 50
180.00000221985749
 51
1.2890870075123893E-05
  0
LINE
  5
530
330
1F
100
AcDbEntity
  8
0
 62
7
100
AcDbLine
 10
159.95835084963346
 20
83.775025053272827
 30
0
 11
159.95835084963619
 21
85.775024073541488
 31
0
  0
ARC
  5
531
330
1F
100
AcDbEntity
  8
0
 62
7
100
AcDbCircle
 10
154.37835084963626
 20
85.7750080745356
 30
0
 40
5.58000000002312
100
AcDbArc
 50
0.00016427876584857603
 51
179.99983067003669
  0
LINE
  5
532
330
1F
100
AcDbEntity
  8
0
 62
7
100
AcDbLine
 10
148.79835084963725
 20
85.775024565474439
 30
0
 11
148.79835084963361
 21
83.775023581648554
 31
0
  0
LINE
  5
533
330
1F
100
AcDbEntity
  8
0
 62
7
100
AcDbLine
 10
559.99999963883147
 20
158.50000010003637
 30
0
 11
559.99999963883147
 21
95.999999659254314
 31
0
  0
ARC
  5
534
330
1F
100
AcDbEntity
  8
0
 62
7
100
AcDbCircle
 10
554.99999963909931
 20
95.999999658986923
 30
0
 40
4.99999999973235
100
AcDbArc
 50
269.99999999693068
 51
3.0640802247487179E-09
  0
LINE
  5
535
330
1F
100
AcDbEntity
  8
0
 62
7
100
AcDbLine
 10
554.99999963883147
 20
90.999999659254314
 30
0
 11
452.74999942215982
 21
90.999999659254328
 31
0
  0
ARC
  5
536
330
1F
100
AcDbEntity
  8
0
 62
7
100
AcDbCircle
 10
452.74999963883147
 20
95.999999659254328
 30
0
 40
5
100
AcDbArc
 50
180
 51
269.99999751712579
  0
LINE
  5
537
330
1F
100
AcDbEntity
  8
0
 62
7
100
AcDbLine
 10
447.74999963883147
 20
95.999999659254328
 30
0
 11
447.74999963883056
 21
104.77502386258145
 31
0
  0
ARC
  5
538
330
1F
100
AcDbEntity
  8
0
 62
7
100
AcDbCircle
 10
442.74999963883056
 20
104.77502407331592
 30
0
 40
5
100
AcDbArc
 50
359.99999758516083
 51
90
  0
LINE
  5
539
330
1F
100
AcDbEntity
  8
0
 62
7
100
AcDbLine
 10
442.74999963883056
 20
109.77502407331592
 30
0
 11
407.74999964250082
 21
109.77502407331592
 31
0
  0
ARC
  5
53A
330
1F
100
AcDbEntity
  8
0
 62
7
100
AcDbCircle
 10
407.74999963883147
 20
104.77502407331592
 30
0
 40
5.00000000000002
100
AcDbArc
 50
89.999999957952284
 51
180
  0
LINE
  5
53B
330
1F
100
AcDbEntity
  8
0
 62
7
100
AcDbLine
 10
402.74999963883147
 20
104.77502407331592
 30
0
 11
402.74999963883147
 21
95.999999659254328
 31
0
  0
ARC
  5
53C
330
1F
100
AcDbEntity
  8
0
 62
7
100
AcDbCircle
 10
397.74999963895743
 20
95.999999659127909
 30
0
 40
4.99999999987383
100
AcDbArc
 50
269.99999999854612
 51
1.4486637796870277E-09
  0
LINE
  5
53D
330
1F
100
AcDbEntity
  8
0
 62
7
100
AcDbLine
 10
397.74999963883056
 20
90.999999659254328
 30
0
 11
359.00003016007668
 21
90.999999659254328
 31
0
  0
ARC
  5
53E
330
1F
100
AcDbEntity
  8
0
 62
7
100
AcDbCircle
 10
359.0000301560458
 20
85.999999659618126
 30
0
 40
4.99999999963572
100
AcDbArc
 50
89.999999953809521
 51
179.99999495318892
  0
LINE
  5
53F
330
1F
100
AcDbEntity
  8
0
 62
7
100
AcDbLine
 10
354.00003015640959
 20
86.000000100035479
 30
0
 11
354.00003015640959
 21
10.000000313040053
 31
0
  0
ARC
  5
540
330
1F
100
AcDbEntity
  8
0
 62
7
100
AcDbCircle
 10
359.00003015640959
 20
9.9999996592543337
 30
0
 40
5
100
AcDbArc
 50
179.99999250816751
 51
270
  0
LINE
  5
541
330
1F
100
AcDbEntity
  8
0
 62
7
100
AcDbLine
 10
359.00003015640959
 20
4.9999996592543345
 30
0
 11
579.99999963883147
 21
4.9999996592543212
 31
0
  0
ARC
  5
542
330
1F
100
AcDbEntity
  8
0
 62
7
100
AcDbCircle
 10
579.99999963897972
 20
9.9999996591060718
 30
0
 40
4.99999999985213
100
AcDbArc
 50
269.99999999830123
 51
1.6987927776261716E-09
  0
LINE
  5
543
330
1F
100
AcDbEntity
  8
0
 62
7
100
AcDbLine
 10
584.99999963883147
 20
9.99999965925432
 30
0
 11
584.99999963883147
 21
158.49999944851984
 31
0
  0
ARC
  5
544
330
1F
100
AcDbEntity
  8
0
 62
7
100
AcDbCircle
 10
579.99999963883147
 20
158.49999965925431
 30
0
 40
5
100
AcDbArc
 50
359.99999758516083
 51
89.999997585155654
  0
LINE
  5
545
330
1F
100
AcDbEntity
  8
0
 62
7
100
AcDbLine
 10
579.99999984956639
 20
163.49999965925431
 30
0
 11
564.99999963883147
 21
163.49999965925431
 31
0
  0
ARC
  5
546
330
1F
100
AcDbEntity
  8
0
 62
7
100
AcDbCircle
 10
564.99999963883147
 20
158.49999965925431
 30
0
 40
5.00000000000002
100
AcDbArc
 50
90
 51
179.99999494900965
  0
CIRCLE
  5
547
330
1F
100
AcDbEntity
  8
0
 62
7
100
AcDbCircle
 10
369.00003015640959
 20
83.999999659254328
 30
0
 40
3.58
  0
CIRCLE
  5
548
330
1F
100
AcDbEntity
  8
0
 62
7
100
AcDbCircle
 10
363.35000574234664
 20
40.199996607496523
 30
0
 40
3.58
  0
CIRCLE
  5
549
330
1F
100
AcDbEntity
  8
0
 62
7
100
AcDbCircle
 10
577.99999963883147
 20
83.999999659254314
 30
0
 40
3.58
  0
CIRCLE
  5
54A
330
1F
100
AcDbEntity
  8
0
 62
7
100
AcDbCircle
 10
575.74999963883147
 20
150.99999965925431
 30
0
 40
3.58
  0
LINE
  5
54B
330
1F
100
AcDbEntity
  8
0
 62
7
100
AcDbLine
 10
534.49999943863259
 20
22.07998440046428
 30
0
 11
532.49999983902944
 21
22.07998440046428
 31
0
  0
ARC
  5
54C
330
1F
100
AcDbEntity
  8
0
 62
7
100
AcDbCircle
 10
532.50000741055464
 20
17.499984400464353
 30
0
 40
4.58000000000607
100
AcDbArc
 50
90.000094719746414
 51
269.9999002712907
  0
LINE
  5
54D
330
1F
100
AcDbEntity
  8
0
 62
7
100
AcDbLine
 10
532.49999943863259
 20
12.919984400465333
 30
0
 11
534.49999983902944
 21
12.919984400465333
 31
0
  0
ARC
  5
54E
330
1F
100
AcDbEntity
  8
0
 62
7
100
AcDbCircle
 10
534.50001377895751
 20
17.499984400465262
 30
0
 40
4.57999999997765
100
AcDbArc
 50
269.99982561156224
 51
90.000179397400657
  0
LINE
  5
54F
330
1F
100
AcDbEntity
  8
0
 62
7
100
AcDbLine
 10
434.49999943863259
 20
22.079984400464287
 30
0
 11
432.49999983902944
 21
22.079984400464287
 31
0
  0
ARC
  5
550
330
1F
100
AcDbEntity
  8
0
 62
7
100
AcDbCircle
 10
432.50002065172976
 20
17.49998440046436
 30
0
 40
4.58000000004768
100
AcDbArc
 50
90.000260366787828
 51
269.99973462424924
  0
LINE
  5
551
330
1F
100
AcDbEntity
  8
0
 62
7
100
AcDbLine
 10
432.49999943863259
 20
12.919984400465339
 30
0
 11
434.49999983902944
 21
12.919984400465339
 31
0
  0
ARC
  5
552
330
1F
100
AcDbEntity
  8
0
 62
7
100
AcDbCircle
 10
434.50002281959769
 20
17.499984400465269
 30
0
 40
4.57999999994081
100
AcDbArc
 50
269.999712513194
 51
90.000292495768861
  0
LINE
  5
553
330
1F
100
AcDbEntity
  8
0
 62
7
100
AcDbLine
 10
374.50002995621071
 20
22.079984400464291
 30
0
 11
372.50003035660757
 21
22.079984400464291
 31
0
  0
ARC
  5
554
330
1F
100
AcDbEntity
  8
0
 62
7
100
AcDbCircle
 10
372.50001816846452
 20
17.499984400465273
 30
0
 40
4.57999999998379
100
AcDbArc
 50
89.999847526385025
 51
270.00014746465206
  0
LINE
  5
555
330
1F
100
AcDbEntity
  8
0
 62
7
100
AcDbLine
 10
372.50002995621071
 20
12.919984400465342
 30
0
 11
374.50003035660757
 21
12.919984400465342
 31
0
  0
ARC
  5
556
330
1F
100
AcDbEntity
  8
0
 62
7
100
AcDbCircle
 10
374.50001111965275
 20
17.499984400464363
 30
0
 40
4.58000000003904
100
AcDbArc
 50
270.00024065421866
 51
89.999764354744229
  0
ARC
  5
557
330
1F
100
AcDbEntity
  8
0
 62
7
100
AcDbCircle
 10
425.24999963883147
 20
83.775023797604419
 30
0
 40
5.58
100
AcDbArc
 50
180.00000221996956
 51
1.2890963462592199E-05
  0
LINE
  5
558
330
1F
100
AcDbEntity
  8
0
 62
7
100
AcDbLine
 10
430.82999963883185
 20
83.775025053047258
 30
0
 11
430.82999963883049
 21
85.775024073315919
 31
0
  0
ARC
  5
559
330
1F
100
AcDbEntity
  8
0
 62
7
100
AcDbCircle
 10
425.24999963883056
 20
85.775008074300942
 30
0
 40
5.58000000002312
100
AcDbArc
 50
0.00016427885923604539
 51
179.99983067014873
  0
LINE
  5
55A
330
1F
100
AcDbEntity
  8
0
 62
7
100
AcDbLine
 10
419.66999963883154
 20
85.775024565228861
 30
0
 11
419.66999963883154
 21
83.775023581402976
 31
0
  0
ENDSEC
  0
SECTION
  2
OBJECTS
  0
DICTIONARY
  5
C
330
0
100
AcDbDictionary
280
0
281
1
  3
ACAD_SCALELIST
350
560
  3
ACAD_COLOR
350
572
  3
ACAD_FIELDLIST
350
573
  3
ACAD_GROUP
350
D
  3
ACAD_IMAGE_DICT
350
574
  3
ACAD_LAYOUT
350
1A
  3
ACAD_MATERIAL
350
575
  3
ACAD_MLEADERSTYLE
350
576
  3
ACAD_MLINESTYLE
350
17
  3
ACAD_PLOTSETTINGS
350
19
  3
ACAD_PLOTSTYLENAME
350
E
  3
ACAD_TABLESTYLE
350
578
  3
ACDB_RECOMPOSE_DATA
350
57C
  3
AcDbVariableDictionary
350
57D
  3
ACAD_VISUALSTYLE
350
580
  3
DWGPROPS
350
581
  0
DICTIONARY
  5
57A
330
579
100
AcDbDictionary
280
0
281
1
  3
ACAD_ROUNDTRIP_2008_TABLESTYLE_CELLSTYLEMAP
360
57B
  0
DICTIONARY
  5
560
102
{ACAD_REACTORS
330
C
102
}
330
C
100
AcDbDictionary
280
0
281
1
  0
DICTIONARY
  5
572
102
{ACAD_REACTORS
330
C
102
}
330
C
100
AcDbDictionary
280
0
281
1
  0
FIELDLIST
  5
573
102
{ACAD_REACTORS
330
C
102
}
330
C
100
AcDbIdSet
100
AcDbFieldList
  0
DICTIONARY
  5
D
102
{ACAD_REACTORS
330
C
102
}
330
C
100
AcDbDictionary
280
0
281
1
  0
DICTIONARY
  5
574
102
{ACAD_REACTORS
330
C
102
}
330
C
100
AcDbDictionary
280
0
281
1
  0
DICTIONARY
  5
1A
102
{ACAD_REACTORS
330
C
102
}
330
C
100
AcDbDictionary
280
0
281
1
  3
Layout1
350
1E
  3
Model
350
22
  0
DICTIONARY
  5
575
102
{ACAD_REACTORS
330
C
102
}
330
C
100
AcDbDictionary
280
0
281
1
  0
DICTIONARY
  5
576
102
{ACAD_REACTORS
330
C
102
}
330
C
100
AcDbDictionary
280
0
281
1
  3
Standard
350
577
  0
DICTIONARY
  5
17
102
{ACAD_REACTORS
330
C
102
}
330
C
100
AcDbDictionary
280
0
281
1
  3
STANDARD
350
18
  0
DICTIONARY
  5
19
102
{ACAD_REACTORS
330
C
102
}
330
C
100
AcDbDictionary
280
0
281
1
  0
ACDBDICTIONARYWDFLT
  5
E
102
{ACAD_REACTORS
330
C
102
}
330
C
100
AcDbDictionary
280
0
281
1
  3
Normal
350
F
100
AcDbDictionaryWithDefault
340
F
  0
ACDBPLACEHOLDER
  5
F
102
{ACAD_REACTORS
330
E
102
}
330
E
  0
DICTIONARY
  5
578
102
{ACAD_REACTORS
330
C
102
}
330
C
100
AcDbDictionary
280
0
281
1
  3
Standard
350
579
  0
XRECORD
  5
57C
102
{ACAD_REACTORS
330
C
102
}
330
C
100
AcDbXrecord
280
1
 90
1
330
579
  0
DICTIONARY
  5
57D
102
{ACAD_REACTORS
330
C
102
}
330
C
100
AcDbDictionary
280
0
281
1
  3
DIMASSOC
350
57E
  3
HIDETEXT
350
57F
  0
DICTIONARY
  5
580
102
{ACAD_REACTORS
330
C
102
}
330
C
100
AcDbDictionary
280
0
281
1
  0
XRECORD
  5
581
102
{ACAD_REACTORS
330
C
102
}
330
C
100
AcDbXrecord
280
0
  1
DWGPROPS COOKIE
  2

  3

  4

  6

  7

  8

  9

300
=
301
=
302
=
303
=
304
=
305
=
306
=
307
=
308
=
309
=
 40
0
 41
2460998.1034367015
 42
2460998.1034367015
  1

 90
0
  0
CELLSTYLEMAP
  5
57B
102
{ACAD_REACTORS
330
57A
102
}
330
57A
100
AcDbCellStyleMap
 90
3
300
CELLSTYLE
  1
TABLEFORMAT_BEGIN
 90
5
170
0
309
TABLEFORMAT_END
  1
CELLSTYLE_BEGIN
 90
3
 91
2
300
_DATA
309
CELLSTYLE_END
300
CELLSTYLE
  1
TABLEFORMAT_BEGIN
 90
5
170
0
309
TABLEFORMAT_END
  1
CELLSTYLE_BEGIN
 90
1
 91
2
300
_TITLE
309
CELLSTYLE_END
300
CELLSTYLE
  1
TABLEFORMAT_BEGIN
 90
5
170
0
309
TABLEFORMAT_END
  1
CELLSTYLE_BEGIN
 90
2
 91
2
300
_HEADER
309
CELLSTYLE_END
  0
LAYOUT
  5
1E
102
{ACAD_REACTORS
330
1A
102
}
330
1A
100
AcDbPlotSettings
  1

  2
C:\Program Files\AutoCAD 2002\plotters\DWF ePlot (optimized for plotting).pc3
  4

  6

 40
0
 41
0
 42
0
 43
0
 44
0
 45
0
 46
0
 47
0
 48
0
 49
0
140
0
141
0
142
1
143
1
 70
688
 72
1
 73
1
 74
1
  7
acad.stb
 75
16
 76
0
 77
0
 78
0
147
1
148
0
149
0
100
AcDbLayout
  1
Layout1
 70
1
 71
1
 10
0
 20
0
 11
420
 21
297
 12
0
 22
0
 32
0
 14
0
 24
0
 34
0
 15
0
 25
0
 35
0
146
0
 13
0
 23
0
 33
0
 16
1
 26
0
 36
0
 17
0
 27
1
 37
0
 76
0
330
55B
  0
LAYOUT
  5
22
102
{ACAD_REACTORS
330
1A
102
}
330
1A
100
AcDbPlotSettings
  1

  2
C:\Program Files\AutoCAD 2002\plotters\DWF ePlot (optimized for plotting).pc3
  4

  6

 40
0
 41
0
 42
0
 43
0
 44
0
 45
0
 46
0
 47
0
 48
0
 49
0
140
0
141
0
142
1
143
1
 70
1712
 72
1
 73
1
 74
0
  7
acad.stb
 75
0
 76
0
 77
0
 78
0
147
1
148
0
149
0
100
AcDbLayout
  1
Model
 70
1
 71
0
 10
0
 20
0
 11
12
 21
9
 12
0
 22
0
 32
0
 14
0
 24
0
 34
0
 15
0
 25
0
 35
0
146
0
 13
0
 23
0
 33
0
 16
1
 26
0
 36
0
 17
0
 27
1
 37
0
 76
0
330
1F
  0
MLEADERSTYLE
  5
577
102
{ACAD_REACTORS
330
576
102
}
330
576
100
AcDbMLeaderStyle
170
2
171
1
172
0
 90
2
 40
0
 41
0
173
1
 91
0
340
0
 92
-2
290
1
 42
0.09
292
1
 43
0.36
  3
Standard
341
0
 44
0.18
300

342
0
174
1
178
1
175
1
176
0
 93
0
 45
0.18
292
0
297
0
 46
0
343
0
 94
0
 47
1
 49
1
140
1
293
1
141
0
294
1
177
0
142
1
295
0
296
0
143
0.125
  0
MLINESTYLE
  5
18
102
{ACAD_REACTORS
330
17
102
}
330
17
100
AcDbMlineStyle
  2
STANDARD
 70
0
  3

 51
90
 52
90
 71
2
 49
0.5
 62
0
  6
ByLayer
 49
-0.5
 62
0
  6
ByLayer
  0
TABLESTYLE
  5
579
102
{ACAD_XDICTIONARY
360
57A
102
}
102
{ACAD_REACTORS
330
578
102
}
330
578
100
AcDbTableStyle
  3

 70
0
 71
0
 40
0.06
 41
0.06
280
0
281
0
  7
Standard
140
0.18
170
1
 62
0
283
0
 90
512
 91
0
274
-2
284
1
 64
0
275
-2
285
1
 65
0
276
-2
286
1
 66
0
277
-2
287
1
 67
0
278
-2
288
1
 68
0
279
-2
289
1
 69
0
  7
Standard
140
0.18
170
1
 62
0
283
0
 90
512
 91
0
274
-2
284
1
 64
0
275
-2
285
1
 65
0
276
-2
286
1
 66
0
277
-2
287
1
 67
0
278
-2
288
1
 68
0
279
-2
289
1
 69
0
  7
Standard
140
0.18
170
1
 62
0
283
0
 90
512
 91
0
274
-2
284
1
 64
0
275
-2
285
1
 65
0
276
-2
286
1
 66
0
277
-2
287
1
 67
0
278
-2
288
1
 68
0
279
-2
289
1
 69
0
  0
DICTIONARYVAR
  5
57E
102
{ACAD_REACTORS
330
57D
102
}
330
57D
100
DictionaryVariables
280
0
  1
1
  0
DICTIONARYVAR
  5
57F
102
{ACAD_REACTORS
330
57D
102
}
330
57D
100
DictionaryVariables
280
0
  1
2
  0
ENDSEC
999
Created By CadLib version 4.0.38.30
999
CadLib website: www.woutware.com
  0
EOF
