  0
SECTION
  2
HEADER
  9
$ACADVER
  1
AC1015
  9
$DWGCODEPAGE
  3
ansi_1252
  9
$INSBASE
 10
0
 20
0
 30
0
  9
$EXTMIN
 10
9.9999965641472954E-08
 20
1E-07
 30
0
  9
$EXTMAX
 10
590.0000001
 20
200.00000010000002
 30
0
  9
$LIMMIN
 10
0
 20
0
  9
$LIMMAX
 10
12
 20
9
  9
$SNAPMODE
 70
0
  9
$SNAPUNIT
 10
1
 20
1
  9
$SNAPBASE
 10
0
 20
0
  9
$SNAPANG
 50
0
  9
$SNAPSTYLE
 70
0
  9
$SNAPISOPAIR
 70
0
  9
$ORTHOMODE
 70
0
  9
$REGENMODE
 70
1
  9
$FILLMODE
 70
1
  9
$QTEXTMODE
 70
0
  9
$MIRRTEXT
 70
1
  9
$LTSCALE
 40
1
  9
$OSMODE
 70
0
  9
$ATTMODE
 70
1
  9
$TEXTSIZE
 40
0.2
  9
$TRACEWID
 40
0.05
  9
$TEXTSTYLE
  7
Standard
  9
$CLAYER
  8
0
  9
$CELTYPE
  6
ByLayer
  9
$CECOLOR
 62
256
  9
$CELTSCALE
 40
1
  9
$DISPSILH
 70
0
  9
$DIMSCALE
 40
1
  9
$DIMASZ
 40
0.18
  9
$DIMEXO
 40
0.0625
  9
$DIMDLI
 40
0.38
  9
$DIMRND
 40
0
  9
$DIMDLE
 40
0
  9
$DIMEXE
 40
0.18
  9
$DIMTP
 40
0
  9
$DIMTM
 40
0
  9
$DIMTXT
 40
0.18
  9
$DIMCEN
 40
0.09
  9
$DIMTSZ
 40
0
  9
$DIMTOL
 70
0
  9
$DIMLIM
 70
0
  9
$DIMTIH
 70
1
  9
$DIMTOH
 70
1
  9
$DIMSE1
 70
0
  9
$DIMSE2
 70
0
  9
$DIMTAD
 70
0
  9
$DIMZIN
 70
0
  9
$DIMBLK
  1

  9
$DIMASO
 70
1
  9
$DIMSHO
 70
1
  9
$DIMPOST
  1

  9
$DIMAPOST
  1

  9
$DIMALT
 70
0
  9
$DIMALTD
 70
2
  9
$DIMALTF
 40
0.03937007874015748
  9
$DIMLFAC
 40
1
  9
$DIMTOFL
 70
0
  9
$DIMTVP
 40
0
  9
$DIMTIX
 70
0
  9
$DIMSOXD
 70
0
  9
$DIMSAH
 70
0
  9
$DIMBLK1
  1

  9
$DIMBLK2
  1

  9
$DIMSTYLE
  2
Standard
  9
$DIMCLRD
 70
0
  9
$DIMCLRE
 70
0
  9
$DIMCLRT
 70
0
  9
$DIMTFAC
 40
1
  9
$DIMGAP
 40
0.09
  9
$DIMJUST
 70
0
  9
$DIMSD1
 70
0
  9
$DIMSD2
 70
0
  9
$DIMTOLJ
 70
1
  9
$DIMTZIN
 70
0
  9
$DIMALTZ
 70
0
  9
$DIMALTTZ
 70
0
  9
$DIMUPT
 70
0
  9
$DIMDEC
 70
4
  9
$DIMTDEC
 70
4
  9
$DIMALTU
 70
2
  9
$DIMALTTD
 70
0
  9
$DIMTXSTY
  7
Standard
  9
$DIMAUNIT
 70
0
  9
$DIMADEC
 70
0
  9
$DIMALTRND
 40
0
  9
$DIMAZIN
 70
0
  9
$DIMDSEP
 70
46
  9
$DIMATFIT
 70
0
  9
$DIMFRAC
 70
0
  9
$DIMLDRBLK
  1

  9
$DIMLUNIT
 70
2
  9
$DIMLWD
 70
-2
  9
$DIMLWE
 70
-2
  9
$LUNITS
 70
2
  9
$LUPREC
 70
4
  9
$SKETCHINC
 40
0.1
  9
$FILLETRAD
 40
0
  9
$AUNITS
 70
0
  9
$AUPREC
 70
0
  9
$MENU
  1
.
  9
$ELEVATION
 40
0
  9
$PELEVATION
 40
0
  9
$THICKNESS
 40
0
  9
$LIMCHECK
 70
0
  9
$CHAMFERA
 40
0.5
  9
$CHAMFERB
 40
0.5
  9
$CHAMFERC
 40
0
  9
$CHAMFERD
 40
0
  9
$SKPOLY
 70
0
  9
$TDCREATE
 40
2461026.3150083679
  9
$TDUCREATE
 40
2461025.9816750349
  9
$TDUPDATE
 40
2461026.3150083679
  9
$TDUUPDATE
 40
2461025.9816750349
  9
$TDINDWG
 40
0
  9
$TDUSRTIMER
 40
1.1574074074074074E-08
  9
$USRTIMER
 70
1
  9
$ANGBASE
 50
0
  9
$ANGDIR
 70
1
  9
$PDMODE
 70
0
  9
$PDSIZE
 40
0
  9
$PLINEWID
 40
0
  9
$SPLFRAME
 70
0
  9
$SPLINETYPE
 70
6
  9
$SPLINESEGS
 70
8
  9
$HANDSEED
  5
16A
  9
$SURFTAB1
 70
6
  9
$SURFTAB2
 70
6
  9
$SURFTYPE
 70
6
  9
$SURFU
 70
6
  9
$SURFV
 70
6
  9
$UCSORG
 10
0
 20
0
 30
0
  9
$UCSXDIR
 10
1
 20
0
 30
0
  9
$UCSYDIR
 10
0
 20
1
 30
0
  9
$UCSORTHOREF
  2

  9
$UCSORTHOVIEW
 70
0
  9
$UCSORGTOP
 10
0
 20
0
 30
0
  9
$UCSORGBOTTOM
 10
0
 20
0
 30
0
  9
$UCSORGLEFT
 10
0
 20
0
 30
0
  9
$UCSORGRIGHT
 10
0
 20
0
 30
0
  9
$UCSORGFRONT
 10
0
 20
0
 30
0
  9
$UCSORGBACK
 10
0
 20
0
 30
0
  9
$PUCSORG
 10
0
 20
0
 30
0
  9
$PUCSXDIR
 10
1
 20
0
 30
0
  9
$PUCSYDIR
 10
0
 20
1
 30
0
  9
$PUCSORTHOREF
  2

  9
$PUCSORTHOVIEW
 70
0
  9
$PUCSORGTOP
 10
0
 20
0
 30
0
  9
$PUCSORGBOTTOM
 10
0
 20
0
 30
0
  9
$PUCSORGLEFT
 10
0
 20
0
 30
0
  9
$PUCSORGRIGHT
 10
0
 20
0
 30
0
  9
$PUCSORGFRONT
 10
0
 20
0
 30
0
  9
$PUCSORGBACK
 10
0
 20
0
 30
0
  9
$USERI1
 70
0
  9
$USERI2
 70
0
  9
$USERI3
 70
0
  9
$USERI4
 70
0
  9
$USERI5
 70
0
  9
$USERR1
 40
0
  9
$USERR2
 40
0
  9
$USERR3
 40
0
  9
$USERR4
 40
0
  9
$USERR5
 40
0
  9
$WORLDVIEW
 70
1
  9
$SHADEDGE
 70
3
  9
$SHADEDIF
 70
70
  9
$TILEMODE
 70
1
  9
$MAXACTVP
 70
48
  9
$PINSBASE
 10
0
 20
0
 30
0
  9
$PLIMCHECK
 70
0
  9
$PEXTMIN
 10
1E+20
 20
1E+20
 30
1E+20
  9
$PEXTMAX
 10
-1E+20
 20
-1E+20
 30
-1E+20
  9
$PLIMMAX
 10
0
 20
0
  9
$PLIMMIN
 10
0
 20
0
  9
$UNITMODE
 70
0
  9
$VISRETAIN
 70
1
  9
$PLINEGEN
 70
1
  9
$PSLTSCALE
 70
1
  9
$TREEDEPTH
 70
3020
  9
$CMLSTYLE
  2
STANDARD
  9
$CMLJUST
 70
0
  9
$CMLSCALE
 40
1
  9
$PROXYGRAPHICS
 70
1
  9
$MEASUREMENT
 70
1
  9
$CELWEIGHT
370
-1
  9
$ENDCAPS
280
0
  9
$JOINSTYLE
280
0
  9
$LWDISPLAY
290
1
  9
$INSUNITS
 70
4
  9
$HYPERLINKBASE
  1

  9
$XEDIT
290
1
  9
$CEPSNTYPE
380
0
  9
$PSTYLEMODE
290
0
  9
$FINGERPRINTGUID
  2

  9
$VERSIONGUID
  2

  9
$EXTNAMES
290
1
  9
$PSVPSCALE
 40
0
  9
$CSHADOW
280
0
  9
$SHADOWPLANELOCATION
 40
0
  0
ENDSEC
  0
SECTION
  2
CLASSES
  0
CLASS
  1
RASTERVARIABLES
  2
AcDbRasterVariables
  3
ISM
 90
0
280
0
281
0
  0
CLASS
  1
IMAGEDEF
  2
AcDbRasterImageDef
  3
ISM
 90
0
280
0
281
0
  0
CLASS
  1
IMAGEDEF_REACTOR
  2
AcDbRasterImageDefReactor
  3
ISM
 90
1
280
0
281
0
  0
CLASS
  1
IMAGE
  2
AcDbRasterImage
  3
ISM
 90
127
280
0
281
1
  0
CLASS
  1
ACAD_EVALUATION_GRAPH
  2
AcDbEvalGraph
  3
ObjectDBX Classes
 90
1153
280
0
281
0
  0
CLASS
  1
BLOCKPOINTPARAMETER
  2
AcDbBlockPointParameter
  3
ObjectDBX Classes
 90
1153
280
0
281
0
  0
CLASS
  1
BLOCKBASEPOINTPARAMETER
  2
AcDbBlockBasepointParameter
  3
ObjectDBX Classes
 90
1153
280
0
281
0
  0
CLASS
  1
BLOCKLOOKUPPARAMETER
  2
AcDbBlockLookupParameter
  3
ObjectDBX Classes
 90
1153
280
0
281
0
  0
CLASS
  1
BLOCKVISIBILITYPARAMETER
  2
AcDbBlockVisibilityParameter
  3
ObjectDBX Classes
 90
1153
280
0
281
0
  0
CLASS
  1
BLOCKPROPERTIESTABLE
  2
AcDbBlockPropertiesTable
  3
ObjectDBX Classes
 90
1153
280
0
281
0
  0
CLASS
  1
BLOCKPOLARPARAMETER
  2
AcDbBlockPolarParameter
  3
ObjectDBX Classes
 90
1153
280
0
281
0
  0
CLASS
  1
BLOCKROTATIONPARAMETER
  2
AcDbBlockRotationParameter
  3
ObjectDBX Classes
 90
1153
280
0
281
0
  0
CLASS
  1
BLOCKLINEARPARAMETER
  2
AcDbBlockLinearParameter
  3
ObjectDBX Classes
 90
1153
280
0
281
0
  0
CLASS
  1
BLOCKXYPARAMETER
  2
AcDbBlockXYParameter
  3
ObjectDBX Classes
 90
1153
280
0
281
0
  0
CLASS
  1
BLOCKFLIPPARAMETER
  2
AcDbBlockFlipParameter
  3
ObjectDBX Classes
 90
1153
280
0
281
0
  0
CLASS
  1
BLOCKALIGNMENTPARAMETER
  2
AcDbBlockAlignmentParameter
  3
ObjectDBX Classes
 90
1153
280
0
281
0
  0
CLASS
  1
BLOCKROTATEACTION
  2
AcDbBlockRotateAction
  3
ObjectDBX Classes
 90
1153
280
0
281
0
  0
CLASS
  1
BLOCKSCALEACTION
  2
AcDbBlockScaleAction
  3
ObjectDBX Classes
 90
1153
280
0
281
0
  0
CLASS
  1
BLOCKARRAYACTION
  2
AcDbBlockArrayAction
  3
ObjectDBX Classes
 90
1153
280
0
281
0
  0
CLASS
  1
BLOCKFLIPACTION
  2
AcDbBlockFlipAction
  3
ObjectDBX Classes
 90
1153
280
0
281
0
  0
CLASS
  1
BLOCKLOOKUPACTION
  2
AcDbBlockLookupAction
  3
ObjectDBX Classes
 90
1153
280
0
281
0
  0
CLASS
  1
BLOCKMOVEACTION
  2
AcDbBlockMoveAction
  3
ObjectDBX Classes
 90
1153
280
0
281
0
  0
CLASS
  1
BLOCKPOLARSTRETCHACTION
  2
AcDbBlockPolarStretchAction
  3
ObjectDBX Classes
 90
1153
280
0
281
0
  0
CLASS
  1
BLOCKSTRETCHACTION
  2
AcDbBlockStretchAction
  3
ObjectDBX Classes
 90
1153
280
0
281
0
  0
CLASS
  1
BLOCKALIGNMENTGRIP
  2
AcDbBlockAlignmentGrip
  3
ObjectDBX Classes
 90
1153
280
0
281
0
  0
CLASS
  1
BLOCKFLIPGRIP
  2
AcDbBlockFlipGrip
  3
ObjectDBX Classes
 90
1153
280
0
281
0
  0
CLASS
  1
ACDB_BLOCKREPRESENTATION_DATA
  2
AcDbBlockRepresentationData
  3
ObjectDBX Classes
 90
1153
280
0
281
0
  0
CLASS
  1
ACDB_DYNAMICBLOCKPURGEPREVENTER_VERSION
  2
AcDbDynamicBlockPurgePreventer
  3
ObjectDBX Classes
 90
1153
280
0
281
0
  0
CLASS
  1
BLOCKLINEARGRIP
  2
AcDbBlockLinearGrip
  3
ObjectDBX Classes
 90
1153
280
0
281
0
  0
CLASS
  1
BLOCKLOOKUPGRIP
  2
AcDbBlockLookupGrip
  3
ObjectDBX Classes
 90
1153
280
0
281
0
  0
CLASS
  1
BLOCKPOLARGRIP
  2
AcDbBlockPolarGrip
  3
ObjectDBX Classes
 90
1153
280
0
281
0
  0
CLASS
  1
BLOCKPROPERTIESTABLEGRIP
  2
AcDbBlockPropertiesTableGrip
  3
ObjectDBX Classes
 90
1153
280
0
281
0
  0
CLASS
  1
BLOCKROTATIONGRIP
  2
AcDbBlockRotationGrip
  3
ObjectDBX Classes
 90
1153
280
0
281
0
  0
CLASS
  1
BLOCKVISIBILITYGRIP
  2
AcDbBlockVisibilityGrip
  3
ObjectDBX Classes
 90
1153
280
0
281
0
  0
CLASS
  1
BLOCKXYGRIP
  2
AcDbBlockXYGrip
  3
ObjectDBX Classes
 90
1153
280
0
281
0
  0
CLASS
  1
BLOCKGRIPLOCATIONCOMPONENT
  2
AcDbBlockGripExpr
  3
ObjectDBX Classes
 90
1153
280
0
281
0
  0
CLASS
  1
ACDB_DYNAMICBLOCKPROXYNODE
  2
AcDbDynamicBlockProxyNode
  3
ObjectDBX Classes
 90
1153
280
0
281
0
  0
CLASS
  1
BLOCKLINEARCONSTRAINTPARAMETER
  2
AcDbBlockLinearConstraintParameter
  3
ObjectDBX Classes
 90
1153
280
0
281
0
  0
CLASS
  1
BLOCKHORIZONTALCONSTRAINTPARAMETER
  2
AcDbBlockHorizontalConstraintParameter
  3
ObjectDBX Classes
 90
1153
280
0
281
0
  0
CLASS
  1
BLOCKVERTICALCONSTRAINTPARAMETER
  2
AcDbBlockVerticalConstraintParameter
  3
ObjectDBX Classes
 90
1153
280
0
281
0
  0
CLASS
  1
BLOCKALIGNEDCONSTRAINTPARAMETER
  2
AcDbBlockAlignedConstraintParameter
  3
ObjectDBX Classes
 90
1153
280
0
281
0
  0
CLASS
  1
BLOCKANGULARCONSTRAINTPARAMETER
  2
AcDbBlockAngularConstraintParameter
  3
ObjectDBX Classes
 90
1153
280
0
281
0
  0
CLASS
  1
BLOCKDIAMETRICCONSTRAINTPARAMETER
  2
AcDbBlockDiametricConstraintParameter
  3
ObjectDBX Classes
 90
1153
280
0
281
0
  0
CLASS
  1
BLOCKRADIALCONSTRAINTPARAMETER
  2
AcDbBlockRadialConstraintParameter
  3
ObjectDBX Classes
 90
1153
280
0
281
0
  0
ENDSEC
  0
SECTION
  2
TABLES
  0
TABLE
  2
VPORT
  5
8
330
0
100
AcDbSymbolTable
 70
1
  0
VPORT
  5
145
330
8
100
AcDbSymbolTableRecord
100
AcDbViewportTableRecord
  2
*Active
 70
64
 10
0
 20
0
 11
1
 21
1
 12
295.00000009999997
 22
100.00000010000001
 13
0
 23
0
 14
1
 24
1
 15
0
 25
0
 16
0
 26
0
 36
1
 17
0
 27
0
 37
0
 40
200.00000000000003
 41
2.9499999999999997
 42
50
 43
0
 44
0
 50
0
 51
0
 71
0
 72
20000
 73
20000
 74
1
 75
0
 76
0
 77
0
 78
0
281
0
 65
1
110
0
120
0
130
0
111
1
121
0
131
0
112
0
122
1
132
0
 79
0
146
0
  0
ENDTAB
  0
TABLE
  2
LTYPE
  5
5
100
AcDbSymbolTable
 70
3
  0
LTYPE
  5
16
330
5
100
AcDbSymbolTableRecord
100
AcDbLinetypeTableRecord
  2
Continuous
  3
Solid line
 70
64
 72
65
 73
0
 40
0
  0
LTYPE
  5
14
330
5
100
AcDbSymbolTableRecord
100
AcDbLinetypeTableRecord
  2
ByBlock
  3

 70
64
 72
65
 73
0
 40
0
  0
LTYPE
  5
15
330
5
100
AcDbSymbolTableRecord
100
AcDbLinetypeTableRecord
  2
ByLayer
  3

 70
64
 72
65
 73
0
 40
0
  0
ENDTAB
  0
TABLE
  2
LAYER
  5
2
100
AcDbSymbolTable
 70
3
  0
LAYER
  5
10
330
2
100
AcDbSymbolTableRecord
100
AcDbLayerTableRecord
 70
64
  2
0
 62
7
  6
Continuous
370
-3
390
F
  0
LAYER
  5
27
330
2
100
AcDbSymbolTableRecord
100
AcDbLayerTableRecord
 70
64
  2
sheet
 62
18
  6
Continuous
370
-3
390
F
  0
LAYER
  5
28
330
2
100
AcDbSymbolTableRecord
100
AcDbLayerTableRecord
 70
64
  2
DEFPOINTS
 62
7
  6
Continuous
290
0
370
-3
390
F
  0
ENDTAB
  0
TABLE
  2
STYLE
  5
3
100
AcDbSymbolTable
 70
1
  0
STYLE
  5
11
330
3
100
AcDbSymbolTableRecord
100
AcDbTextStyleTableRecord
  2
Standard
 70
64
 40
0
 41
1
 50
0
 71
0
 42
0.2
  3
txt.shx
  0
ENDTAB
  0
TABLE
  2
VIEW
  5
6
100
AcDbSymbolTable
 70
0
  0
ENDTAB
  0
TABLE
  2
UCS
  5
7
100
AcDbSymbolTable
 70
0
  0
ENDTAB
  0
TABLE
  2
APPID
  5
9
330
0
100
AcDbSymbolTable
 70
2
  0
APPID
  5
12
330
0
100
AcDbSymbolTableRecord
100
AcDbRegAppTableRecord
  2
ACAD
 70
64
  0
APPID
  5
168
330
0
100
AcDbSymbolTableRecord
100
AcDbRegAppTableRecord
  2
ACAD_MLEADERVER
 70
64
  0
ENDTAB
  0
TABLE
  2
DIMSTYLE
  5
A
330
0
100
AcDbSymbolTable
 70
1
100
AcDbDimStyleTable
 71
0
  0
DIMSTYLE
105
144
330
A
100
AcDbSymbolTableRecord
100
AcDbDimStyleTableRecord
  2
Standard
 70
64
  3

  4

 40
1
 41
0.18
 42
0.0625
 43
0.38
 44
0.18
 45
0
 46
0
 47
0
 48
0
140
0.18
141
0.09
142
0
143
1
144
1
145
0
146
1
147
0.09
148
0
 71
0
 72
0
 73
1
 74
1
 75
0
 76
0
 77
0
 78
0
 79
0
170
0
171
2
172
0
173
0
174
0
175
0
179
0
271
4
272
4
273
2
274
0
275
0
276
0
277
2
278
46
279
0
280
0
281
0
282
0
283
1
284
0
285
0
286
0
288
0
289
0
340
11
371
-2
372
-2
  0
ENDTAB
  0
TABLE
  2
BLOCK_RECORD
  5
1
330
0
100
AcDbSymbolTable
 70
3
  0
BLOCK_RECORD
  5
1F
330
1
100
AcDbSymbolTableRecord
100
AcDbBlockTableRecord
  2
*Model_Space
340
22
  0
BLOCK_RECORD
  5
141
330
1
100
AcDbSymbolTableRecord
100
AcDbBlockTableRecord
  2
*Paper_Space
340
1E
  0
ENDTAB
  0
ENDSEC
  0
SECTION
  2
BLOCKS
  0
BLOCK
  5
20
330
1F
100
AcDbEntity
  8
0
100
AcDbBlockBegin
  2
*Model_Space
 70
64
 10
0
 20
0
 30
0
  3
*Model_Space
  0
ENDBLK
  5
21
330
1F
100
AcDbEntity
  8
0
100
AcDbBlockEnd
  0
BLOCK
  5
142
330
141
100
AcDbEntity
  8
0
 67
1
100
AcDbBlockBegin
  2
*Paper_Space
 70
64
 10
0
 20
0
 30
0
  3
*Paper_Space
  0
ENDBLK
  5
143
330
141
100
AcDbEntity
  8
0
100
AcDbBlockEnd
  0
ENDSEC
  0
SECTION
  2
ENTITIES
  0
LINE
  5
29
330
1F
100
AcDbEntity
  8
sheet
 62
18
100
AcDbLine
 10
590.0000001
 20
1E-07
 30
0
 11
590.0000001
 21
200.0000001
 31
0
  0
LINE
  5
2A
330
1F
100
AcDbEntity
  8
sheet
 62
18
100
AcDbLine
 10
590.0000001
 20
200.0000001
 30
0
 11
9.9999965641472954E-08
 21
200.00000010000002
 31
0
  0
LINE
  5
2B
330
1F
100
AcDbEntity
  8
sheet
 62
18
100
AcDbLine
 10
9.9999965641472954E-08
 20
200.00000010000002
 30
0
 11
9.9999965641472954E-08
 21
1.0000003612708057E-07
 31
0
  0
LINE
  5
2C
330
1F
100
AcDbEntity
  8
sheet
 62
18
100
AcDbLine
 10
9.9999965641472954E-08
 20
1.0000003612708057E-07
 30
0
 11
590.0000001
 21
1E-07
 31
0
  0
ARC
  5
2D
330
1F
100
AcDbEntity
  8
0
 62
7
100
AcDbCircle
 10
498.81433310046356
 20
137.39553477455286
 30
0
 40
1.99999999943424
100
AcDbArc
 50
359.99999998381816
 51
90.0000000162079
  0
LINE
  5
2E
330
1F
100
AcDbEntity
  8
0
 62
7
100
AcDbLine
 10
498.81433309989779
 20
139.39553477398709
 30
0
 11
424.34265223354078
 21
139.39553477398545
 31
0
  0
ARC
  5
2F
330
1F
100
AcDbEntity
  8
0
 62
7
100
AcDbCircle
 10
424.34265223331113
 20
144.39553477375591
 30
0
 40
4.99999999977045
100
AcDbArc
 50
179.99999999738017
 51
270.00000000263157
  0
LINE
  5
30
330
1F
100
AcDbEntity
  8
0
 62
7
100
AcDbLine
 10
419.34265223354072
 20
144.39553477398454
 30
0
 11
419.3426522335406
 21
179.39553477398454
 31
0
  0
ARC
  5
31
330
1F
100
AcDbEntity
  8
0
 62
7
100
AcDbCircle
 10
404.34265223357681
 20
179.39553477402066
 30
0
 40
14.9999999999638
100
AcDbArc
 50
359.99999999986204
 51
90.000000000130711
  0
LINE
  5
32
330
1F
100
AcDbEntity
  8
0
 62
7
100
AcDbLine
 10
404.34265223354259
 20
194.39553477398448
 30
0
 11
26.342652233540548
 21
194.39553477398317
 31
0
  0
ARC
  5
33
330
1F
100
AcDbEntity
  8
0
 62
7
100
AcDbCircle
 10
26.342652233571471
 20
179.39553477395239
 30
0
 40
15.0000000000308
100
AcDbArc
 50
90.000000000118121
 51
179.99999999988256
  0
LINE
  5
34
330
1F
100
AcDbEntity
  8
0
 62
7
100
AcDbLine
 10
11.342652233540548
 20
179.39553477398314
 30
0
 11
11.342652233538956
 21
79.423853907624334
 31
0
  0
ARC
  5
35
330
1F
100
AcDbEntity
  8
0
 62
7
100
AcDbCircle
 10
13.342652233623085
 20
79.423853907707723
 30
0
 40
2.00000000008346
100
AcDbArc
 50
180.00000000238893
 51
269.99999999753129
  0
LINE
  5
36
330
1F
100
AcDbEntity
  8
0
 62
7
100
AcDbLine
 10
13.34265223353691
 20
77.423853907624334
 30
0
 11
19.342652233538956
 21
77.423853907624363
 31
0
  0
ARC
  5
37
330
1F
100
AcDbEntity
  8
0
 62
7
100
AcDbCircle
 10
19.342652233719946
 20
79.423853907443458
 30
0
 40
1.99999999981914
100
AcDbArc
 50
269.999999994815
 51
5.1825230206329038E-09
  0
LINE
  5
38
330
1F
100
AcDbEntity
  8
0
 62
7
100
AcDbLine
 10
21.342652233538956
 20
79.423853907624363
 30
0
 11
21.342652233540548
 21
179.39553477398317
 31
0
  0
ARC
  5
39
330
1F
100
AcDbEntity
  8
0
 62
7
100
AcDbCircle
 10
26.342652233651506
 20
179.39553477387219
 30
0
 40
5.00000000011098
100
AcDbArc
 50
90.0000000012715
 51
179.99999999872819
  0
LINE
  5
3A
330
1F
100
AcDbEntity
  8
0
 62
7
100
AcDbLine
 10
26.342652233540548
 20
184.39553477398317
 30
0
 11
404.34265223354259
 21
184.39553477398448
 31
0
  0
ARC
  5
3B
330
1F
100
AcDbEntity
  8
0
 62
7
100
AcDbCircle
 10
404.34265223345824
 20
179.39553477390007
 30
0
 40
5.00000000008445
100
AcDbArc
 50
9.67295734147817E-10
 51
89.999999999033349
  0
LINE
  5
3C
330
1F
100
AcDbEntity
  8
0
 62
7
100
AcDbLine
 10
409.34265223354259
 20
179.39553477398448
 30
0
 11
409.34265223354271
 21
144.39553477398451
 31
0
  0
ARC
  5
3D
330
1F
100
AcDbEntity
  8
0
 62
7
100
AcDbCircle
 10
424.34265223353111
 20
144.39553477397294
 30
0
 40
14.9999999999884
100
AcDbArc
 50
179.99999999995583
 51
270.00000000003689
  0
LINE
  5
3E
330
1F
100
AcDbEntity
  8
0
 62
7
100
AcDbLine
 10
424.34265223354078
 20
129.39553477398454
 30
0
 11
498.81433309989779
 21
129.395534773988
 31
0
  0
ARC
  5
3F
330
1F
100
AcDbEntity
  8
0
 62
7
100
AcDbCircle
 10
498.81433309910113
 20
131.3955347747858
 30
0
 40
2.00000000079779
100
AcDbArc
 50
270.00000002282263
 51
359.9999999771448
  0
LINE
  5
40
330
1F
100
AcDbEntity
  8
0
 62
7
100
AcDbLine
 10
500.81433309989893
 20
131.395534773988
 30
0
 11
500.81433309989779
 21
137.395534773988
 31
0
  0
LINE
  5
41
330
1F
100
AcDbEntity
  8
0
 62
7
100
AcDbLine
 10
492.89433309992296
 20
137.39553477398798
 30
0
 11
490.73433309992288
 21
137.39553477398889
 31
0
  0
ARC
  5
42
330
1F
100
AcDbEntity
  8
0
 62
7
100
AcDbCircle
 10
490.73431542475868
 20
134.39553477398843
 30
0
 40
2.99999999994839
100
AcDbArc
 50
89.9996624292297
 51
270.00033757077136
  0
LINE
  5
43
330
1F
100
AcDbEntity
  8
0
 62
7
100
AcDbLine
 10
490.73433309992294
 20
131.39553477398798
 30
0
 11
492.89433309992296
 21
131.39553477398798
 31
0
  0
ARC
  5
44
330
1F
100
AcDbEntity
  8
0
 62
7
100
AcDbCircle
 10
492.89434418061717
 20
134.39553477398798
 30
0
 40
2.99999999997954
100
AcDbArc
 50
269.99978837432928
 51
90.000211625670715
  0
ARC
  5
45
330
1F
100
AcDbEntity
  8
0
 62
7
100
AcDbCircle
 10
16.342652233583976
 20
87.503834068545956
 30
0
 40
3.00000000013461
100
AcDbArc
 50
0.00037889598359778126
 51
179.99962110401697
  0
LINE
  5
46
330
1F
100
AcDbEntity
  8
0
 62
7
100
AcDbLine
 10
13.342652233514855
 20
87.503853907493237
 30
0
 11
13.342652233528952
 21
84.343853907693017
 31
0
  0
ARC
  5
47
330
1F
100
AcDbEntity
  8
0
 62
7
100
AcDbCircle
 10
16.342652233533954
 20
84.343889025705749
 30
0
 40
3.00000000021055
100
AcDbArc
 50
180.00067070463811
 51
359.99932929536243
  0
LINE
  5
48
330
1F
100
AcDbEntity
  8
0
 62
7
100
AcDbLine
 10
19.342652233538956
 20
84.343853907693045
 30
0
 11
19.342652233652871
 21
87.503853907493266
 31
0
  0
LINE
  5
49
330
1F
100
AcDbEntity
  8
0
 62
7
100
AcDbLine
 10
426.34265209989792
 20
172.895534773988
 30
0
 11
426.34265209985426
 21
148.395534773988
 31
0
  0
ARC
  5
4A
330
1F
100
AcDbEntity
  8
0
 62
7
100
AcDbCircle
 10
428.34265209978196
 20
148.3955347739122
 30
0
 40
1.99999999992767
100
AcDbArc
 50
179.99999999782847
 51
270.00000000197207
  0
LINE
  5
4B
330
1F
100
AcDbEntity
  8
0
 62
7
100
AcDbLine
 10
428.3426520998508
 20
146.39553477398451
 30
0
 11
434.3426520998508
 21
146.39553477397405
 31
0
  0
ARC
  5
4C
330
1F
100
AcDbEntity
  8
0
 62
7
100
AcDbCircle
 10
434.34265209973387
 20
148.39553477409444
 30
0
 40
2.00000000012044
100
AcDbArc
 50
270.00000000334973
 51
359.99999999645081
  0
LINE
  5
4D
330
1F
100
AcDbEntity
  8
0
 62
7
100
AcDbLine
 10
436.34265209985426
 20
148.39553477397055
 30
0
 11
436.34265209989792
 21
172.89553477397055
 31
0
  0
ARC
  5
4E
330
1F
100
AcDbEntity
  8
0
 62
7
100
AcDbCircle
 10
441.34265209994021
 20
172.89553477391951
 30
0
 40
5.00000000004233
100
AcDbArc
 50
90.000000000384318
 51
179.99999999941505
  0
LINE
  5
4F
330
1F
100
AcDbEntity
  8
0
 62
7
100
AcDbLine
 10
441.34265209990667
 20
177.89553477396183
 30
0
 11
583.00000010223278
 21
177.89553477369057
 31
0
  0
ARC
  5
50
330
1F
100
AcDbEntity
  8
0
 62
7
100
AcDbCircle
 10
583.00000010238114
 20
179.89553477354605
 30
0
 40
1.99999999985548
100
AcDbArc
 50
269.99999999574976
 51
4.040169556624837E-09
  0
LINE
  5
51
330
1F
100
AcDbEntity
  8
0
 62
7
100
AcDbLine
 10
585.00000010223619
 20
179.89553477368707
 30
0
 11
585.00000010224664
 21
185.89553477368707
 31
0
  0
ARC
  5
52
330
1F
100
AcDbEntity
  8
0
 62
7
100
AcDbCircle
 10
583.00000010180861
 20
185.89553477325248
 30
0
 40
2.00000000043813
100
AcDbArc
 50
1.2450268575643381E-08
 51
89.999999987320933
  0
LINE
  5
53
330
1F
100
AcDbEntity
  8
0
 62
7
100
AcDbLine
 10
583.00000010225119
 20
187.89553477369057
 30
0
 11
441.34265209992412
 21
187.89553477396183
 31
0
  0
ARC
  5
54
330
1F
100
AcDbEntity
  8
0
 62
7
100
AcDbCircle
 10
441.34265209987495
 20
172.89553477398485
 30
0
 40
14.999999999977
100
AcDbArc
 50
89.999999999812189
 51
179.99999999998798
  0
LINE
  5
55
330
1F
100
AcDbEntity
  8
0
 62
7
100
AcDbLine
 10
577.58000010223873
 20
185.89553477370112
 30
0
 11
574.42000010224763
 21
185.89553477370251
 31
0
  0
ARC
  5
56
330
1F
100
AcDbEntity
  8
0
 62
7
100
AcDbCircle
 10
574.41998598915143
 20
182.89553477370461
 30
0
 40
2.99999999996476
100
AcDbArc
 50
89.999730459717313
 51
270.00026954008507
  0
LINE
  5
57
330
1F
100
AcDbEntity
  8
0
 62
7
100
AcDbLine
 10
574.42000010223728
 20
179.89553477370666
 30
0
 11
577.58000010223213
 21
179.89553477370114
 31
0
  0
ARC
  5
58
330
1F
100
AcDbEntity
  8
0
 62
7
100
AcDbCircle
 10
577.5799865312124
 20
182.89553477370114
 30
0
 40
3.0000000000307
100
AcDbArc
 50
270.00025918738481
 51
89.999740812489222
  0
ARC
  5
59
330
1F
100
AcDbEntity
  8
0
 62
7
100
AcDbCircle
 10
431.34265209986472
 20
154.97552112777007
 30
0
 40
3.00000000004206
100
AcDbArc
 50
0.00026062322353978675
 51
179.99973937640843
  0
LINE
  5
5A
330
1F
100
AcDbEntity
  8
0
 62
7
100
AcDbLine
 10
428.34265209985369
 20
154.97553477398941
 30
0
 11
428.34265209985415
 21
151.81553477397961
 31
0
  0
ARC
  5
5B
330
1F
100
AcDbEntity
  8
0
 62
7
100
AcDbCircle
 10
431.34265209986017
 20
151.81552222128758
 30
0
 40
2.99999999997976
100
AcDbArc
 50
179.99976026124176
 51
0.00023973857584025937
  0
LINE
  5
5C
330
1F
100
AcDbEntity
  8
0
 62
7
100
AcDbLine
 10
434.3426520998662
 20
151.81553477397006
 30
0
 11
434.34265209987575
 21
154.97553477397014
 31
0
  0
LINE
  5
5D
330
1F
100
AcDbEntity
  8
0
 62
7
100
AcDbLine
 10
247.77578235746796
 20
152.08106454272803
 30
0
 11
151.99625689360704
 21
135.19255000399437
 31
0
  0
ARC
  5
5E
330
1F
100
AcDbEntity
  8
0
 62
7
100
AcDbCircle
 10
150.95436782756263
 20
141.10139652200525
 30
0
 40
5.99999999994603
100
AcDbArc
 50
189.99999999948477
 51
280.00000000050613
  0
LINE
  5
5F
330
1F
100
AcDbEntity
  8
0
 62
7
100
AcDbLine
 10
145.04552130953317
 20
140.05950745606617
 30
0
 11
138.79418691354812
 21
175.51258656451
 31
0
  0
ARC
  5
60
330
1F
100
AcDbEntity
  8
0
 62
7
100
AcDbCircle
 10
136.82457140715309
 20
175.16529020864624
 30
0
 40
2.00000000045743
100
AcDbArc
 50
10.00000001310624
 51
99.999999986906417
  0
LINE
  5
61
330
1F
100
AcDbEntity
  8
0
 62
7
100
AcDbLine
 10
136.4772750521899
 20
177.13490571520055
 30
0
 11
132.53804404014096
 21
176.44031300453281
 31
0
  0
ARC
  5
62
330
1F
100
AcDbEntity
  8
0
 62
7
100
AcDbCircle
 10
132.88534039533926
 20
174.47069749860384
 30
0
 40
1.99999999988249
100
AcDbArc
 50
99.99999999665016
 51
190.0000000033678
  0
LINE
  5
63
330
1F
100
AcDbEntity
  8
0
 62
7
100
AcDbLine
 10
130.9157248894515
 20
174.1234011431747
 30
0
 11
137.1670592854345
 21
138.67032203473053
 31
0
  0
ARC
  5
64
330
1F
100
AcDbEntity
  8
0
 62
7
100
AcDbCircle
 10
150.95436782757935
 20
141.10139652203026
 30
0
 40
13.9999999999678
100
AcDbArc
 50
189.99999999986818
 51
280.00000000013944
  0
LINE
  5
65
330
1F
100
AcDbEntity
  8
0
 62
7
100
AcDbLine
 10
153.38544231494433
 20
127.31408797989701
 30
0
 11
249.1649677788036
 21
144.20260251862925
 31
0
  0
ARC
  5
66
330
1F
100
AcDbEntity
  8
0
 62
7
100
AcDbCircle
 10
250.20685684480685
 20
138.29375600055965
 30
0
 40
5.99999999999667
100
AcDbArc
 50
9.9999999999689191
 51
100.00000000002176
  0
LINE
  5
67
330
1F
100
AcDbEntity
  8
0
 62
7
100
AcDbLine
 10
256.11570336287735
 20
139.33564506655745
 30
0
 11
266.18729766756047
 21
82.216795391850653
 31
0
  0
LINE
  5
68
330
1F
100
AcDbEntity
  8
0
 62
7
100
AcDbLine
 10
266.18729766756047
 20
82.216795391850653
 30
0
 11
267.66450929707878
 21
82.477267658351067
 31
0
  0
LINE
  5
69
330
1F
100
AcDbEntity
  8
0
 62
7
100
AcDbLine
 10
267.66450929707878
 20
82.477267658351067
 30
0
 11
266.88309249757725
 21
86.908902546907981
 31
0
  0
ARC
  5
6A
330
1F
100
AcDbEntity
  8
0
 62
7
100
AcDbCircle
 10
269.34511278715712
 20
87.343017846942516
 30
0
 40
2.50000000000546
100
AcDbArc
 50
10.000119713556773
 51
189.999880286443
  0
LINE
  5
6B
330
1F
100
AcDbEntity
  8
0
 62
7
100
AcDbLine
 10
271.80713126263828
 20
87.777143435242621
 30
0
 11
272.58854806213981
 21
83.3455085466857
 31
0
  0
LINE
  5
6C
330
1F
100
AcDbEntity
  8
0
 62
7
100
AcDbLine
 10
272.58854806213981
 20
83.3455085466857
 30
0
 11
274.06575969165812
 21
83.605980813186122
 31
0
  0
LINE
  5
6D
330
1F
100
AcDbEntity
  8
0
 62
7
100
AcDbLine
 10
274.06575969165812
 20
83.605980813186122
 30
0
 11
263.99416538697614
 21
140.72483048789309
 31
0
  0
ARC
  5
6E
330
1F
100
AcDbEntity
  8
0
 62
7
100
AcDbCircle
 10
250.20685684479866
 20
138.29375600054806
 30
0
 40
14.0000000000078
100
AcDbArc
 50
10.0000000000276
 51
99.9999999999681
  0
LINE
  5
6F
330
1F
100
AcDbEntity
  8
0
 62
7
100
AcDbLine
 10
138.77011918880777
 20
169.84269728791907
 30
0
 11
138.39557639769117
 21
171.9691480954923
 31
0
  0
ARC
  5
70
330
1F
100
AcDbEntity
  8
0
 62
7
100
AcDbCircle
 10
135.44115313865353
 20
171.4482035624913
 30
0
 40
3.00000000000045
100
AcDbArc
 50
10.00000000000056
 51
190.00000000000074
  0
LINE
  5
71
330
1F
100
AcDbEntity
  8
0
 62
7
100
AcDbLine
 10
132.48672987961692
 20
170.92725902949047
 30
0
 11
132.8612726707326
 21
168.80080822191712
 31
0
  0
ARC
  5
72
330
1F
100
AcDbEntity
  8
0
 62
7
100
AcDbCircle
 10
135.81569652109403
 20
169.32174940135371
 30
0
 40
2.99999999999909
100
AcDbArc
 50
189.99993496358934
 51
10.000065036411076
  0
ARC
  5
73
330
1F
100
AcDbEntity
  8
0
 62
7
100
AcDbCircle
 10
273.87097109969693
 20
163.39553477379746
 30
0
 40
6.00000000019057
100
AcDbArc
 50
1.719908268014426E-09
 51
89.999999998080071
  0
LINE
  5
74
330
1F
100
AcDbEntity
  8
0
 62
7
100
AcDbLine
 10
279.87097109988753
 20
163.39553477397757
 30
0
 11
279.87097109976287
 21
92.395534773977559
 31
0
  0
ARC
  5
75
330
1F
100
AcDbEntity
  8
0
 62
7
100
AcDbCircle
 10
294.87097109975446
 20
92.395534773943
 30
0
 40
14.9999999999916
100
AcDbArc
 50
179.99999999986798
 51
269.99999999993224
  0
LINE
  5
76
330
1F
100
AcDbEntity
  8
0
 62
7
100
AcDbLine
 10
294.87097109973672
 20
77.395534773951439
 30
0
 11
370.34265196612193
 21
77.395534773819847
 31
0
  0
ARC
  5
77
330
1F
100
AcDbEntity
  8
0
 62
7
100
AcDbCircle
 10
370.34265196594811
 20
79.395534773997028
 30
0
 40
2.00000000017719
100
AcDbArc
 50
270.00000000497977
 51
359.9999999948248
  0
LINE
  5
78
330
1F
100
AcDbEntity
  8
0
 62
7
100
AcDbLine
 10
372.34265196612535
 20
79.395534773816379
 30
0
 11
372.34265196613239
 21
83.395534773817459
 31
0
  0
ARC
  5
79
330
1F
100
AcDbEntity
  8
0
 62
7
100
AcDbCircle
 10
370.34265196532237
 20
83.395534773010965
 30
0
 40
2.00000000081001
100
AcDbArc
 50
2.3104363418791958E-08
 51
89.999999976696969
  0
LINE
  5
7A
330
1F
100
AcDbEntity
  8
0
 62
7
100
AcDbLine
 10
370.3426519661358
 20
85.395534773820927
 30
0
 11
293.87097109975156
 21
85.395534773953145
 31
0
  0
ARC
  5
7B
330
1F
100
AcDbEntity
  8
0
 62
7
100
AcDbCircle
 10
293.87097109990964
 20
91.395534774100824
 30
0
 40
6.00000000014764
100
AcDbArc
 50
180.00000000131033
 51
269.99999999849041
  0
LINE
  5
7C
330
1F
100
AcDbEntity
  8
0
 62
7
100
AcDbLine
 10
287.870971099762
 20
91.3955347739636
 30
0
 11
287.87097109988582
 21
162.39553477396362
 31
0
  0
ARC
  5
7D
330
1F
100
AcDbEntity
  8
0
 62
7
100
AcDbCircle
 10
272.87097109993636
 20
162.3955347740403
 30
0
 40
14.9999999999495
100
AcDbArc
 50
359.99999999970709
 51
90.00000000009662
  0
LINE
  5
7E
330
1F
100
AcDbEntity
  8
0
 62
7
100
AcDbLine
 10
272.87097109991106
 20
177.39553477398977
 30
0
 11
188.099290233516
 21
177.39553477413756
 31
0
  0
LINE
  5
7F
330
1F
100
AcDbEntity
  8
0
 62
7
100
AcDbLine
 10
188.099290233516
 20
177.39553477413756
 30
0
 11
188.09929023351339
 21
175.89553477413756
 31
0
  0
LINE
  5
80
330
1F
100
AcDbEntity
  8
0
 62
7
100
AcDbLine
 10
188.09929023351339
 20
175.89553477413756
 30
0
 11
192.59929023351339
 21
175.89553477412971
 31
0
  0
ARC
  5
81
330
1F
100
AcDbEntity
  8
0
 62
7
100
AcDbCircle
 10
192.59931393188418
 20
173.39553477412971
 30
0
 40
2.49999999988768
100
AcDbArc
 50
269.99945687314954
 51
90.000543126651166
  0
LINE
  5
82
330
1F
100
AcDbEntity
  8
0
 62
7
100
AcDbLine
 10
192.59929023350469
 20
170.89553477412971
 30
0
 11
188.09929023350469
 21
170.89553477413756
 31
0
  0
LINE
  5
83
330
1F
100
AcDbEntity
  8
0
 62
7
100
AcDbLine
 10
188.09929023350469
 20
170.89553477413756
 30
0
 11
188.09929023350207
 21
169.39553477413756
 31
0
  0
LINE
  5
84
330
1F
100
AcDbEntity
  8
0
 62
7
100
AcDbLine
 10
188.09929023350207
 20
169.39553477413756
 30
0
 11
273.870971099898
 21
169.39553477398803
 31
0
  0
ARC
  5
85
330
1F
100
AcDbEntity
  8
0
 62
7
100
AcDbCircle
 10
363.76262278930938
 20
81.395534773833319
 30
0
 40
2.99999999985812
100
AcDbArc
 50
89.999442763606368
 51
270.00055723617652
  0
LINE
  5
86
330
1F
100
AcDbEntity
  8
0
 62
7
100
AcDbLine
 10
363.76265196612735
 20
78.395534773833319
 30
0
 11
365.92265196612857
 21
78.395534773828658
 31
0
  0
ARC
  5
87
330
1F
100
AcDbEntity
  8
0
 62
7
100
AcDbCircle
 10
365.9226304766961
 20
81.395534773827691
 30
0
 40
3.00000000007594
100
AcDbArc
 50
270.00041041792821
 51
89.99958958187203
  0
LINE
  5
88
330
1F
100
AcDbEntity
  8
0
 62
7
100
AcDbLine
 10
365.922651966139
 20
84.39553477382664
 30
0
 11
363.76265196613872
 21
84.395534773833319
 31
0
  0
ARC
  5
89
330
1F
100
AcDbEntity
  8
0
 62
7
100
AcDbCircle
 10
408.34265210008851
 20
88.855993421992878
 30
0
 40
6.00000000019057
100
AcDbArc
 50
180.00000000181979
 51
269.99999999817993
  0
LINE
  5
8A
330
1F
100
AcDbEntity
  8
0
 62
7
100
AcDbLine
 10
402.34265209989792
 20
88.85599342180231
 30
0
 11
402.34265209989883
 21
159.85599342180228
 31
0
  0
ARC
  5
8B
330
1F
100
AcDbEntity
  8
0
 62
7
100
AcDbCircle
 10
387.34265209990724
 20
159.85599342181069
 30
0
 40
14.9999999999916
100
AcDbArc
 50
359.99999999996788
 51
90.000000000032131
  0
LINE
  5
8C
330
1F
100
AcDbEntity
  8
0
 62
7
100
AcDbLine
 10
387.34265209989883
 20
174.85599342180228
 30
0
 11
311.87097123351367
 21
174.85599342180231
 31
0
  0
ARC
  5
8D
330
1F
100
AcDbEntity
  8
0
 62
7
100
AcDbCircle
 10
311.87097123369091
 20
172.85599342162513
 30
0
 40
2.00000000017719
100
AcDbArc
 50
90.000000005077482
 51
179.99999999492414
  0
LINE
  5
8E
330
1F
100
AcDbEntity
  8
0
 62
7
100
AcDbLine
 10
309.87097123351367
 20
172.85599342180231
 30
0
 11
309.87097123351367
 21
168.85599342180123
 31
0
  0
ARC
  5
8F
330
1F
100
AcDbEntity
  8
0
 62
7
100
AcDbCircle
 10
311.87097123432369
 20
168.85599342261122
 30
0
 40
2.00000000081001
100
AcDbArc
 50
180.00000002320451
 51
269.9999999767947
  0
LINE
  5
90
330
1F
100
AcDbEntity
  8
0
 62
7
100
AcDbLine
 10
311.87097123351367
 20
166.85599342180123
 30
0
 11
388.34265209989792
 21
166.85599342180228
 31
0
  0
ARC
  5
91
330
1F
100
AcDbEntity
  8
0
 62
7
100
AcDbCircle
 10
388.34265209975035
 20
160.8559934216546
 30
0
 40
6.00000000014764
100
AcDbArc
 50
1.4102325012887879E-09
 51
89.999999998590866
  0
LINE
  5
92
330
1F
100
AcDbEntity
  8
0
 62
7
100
AcDbLine
 10
394.34265209989792
 20
160.85599342180228
 30
0
 11
394.34265209989792
 21
89.85599342180231
 31
0
  0
ARC
  5
93
330
1F
100
AcDbEntity
  8
0
 62
7
100
AcDbCircle
 10
409.34265209984744
 20
89.855993421751791
 30
0
 40
14.9999999999495
100
AcDbArc
 50
179.99999999980702
 51
270.00000000019628
  0
LINE
  5
94
330
1F
100
AcDbEntity
  8
0
 62
7
100
AcDbLine
 10
409.34265209989883
 20
74.85599342180231
 30
0
 11
494.11433296629383
 21
74.8559934218023
 31
0
  0
LINE
  5
95
330
1F
100
AcDbEntity
  8
0
 62
7
100
AcDbLine
 10
494.11433296629383
 20
74.8559934218023
 30
0
 11
494.11433296629383
 21
76.3559934218023
 31
0
  0
LINE
  5
96
330
1F
100
AcDbEntity
  8
0
 62
7
100
AcDbLine
 10
494.11433296629383
 20
76.3559934218023
 30
0
 11
489.61433296629383
 21
76.3559934218023
 31
0
  0
ARC
  5
97
330
1F
100
AcDbEntity
  8
0
 62
7
100
AcDbCircle
 10
489.61430926791877
 20
78.8559934218023
 30
0
 40
2.49999999988768
100
AcDbArc
 50
89.99945687325112
 51
270.00054312674888
  0
LINE
  5
98
330
1F
100
AcDbEntity
  8
0
 62
7
100
AcDbLine
 10
489.61433296629383
 20
81.3559934218023
 30
0
 11
494.11433296629383
 21
81.3559934218023
 31
0
  0
LINE
  5
99
330
1F
100
AcDbEntity
  8
0
 62
7
100
AcDbLine
 10
494.11433296629383
 20
81.3559934218023
 30
0
 11
494.11433296629383
 21
82.8559934218023
 31
0
  0
LINE
  5
9A
330
1F
100
AcDbEntity
  8
0
 62
7
100
AcDbLine
 10
494.11433296629383
 20
82.8559934218023
 30
0
 11
408.34265209989792
 21
82.85599342180231
 31
0
  0
ARC
  5
9B
330
1F
100
AcDbEntity
  8
0
 62
7
100
AcDbCircle
 10
318.45100041033317
 20
170.85599342180032
 30
0
 40
2.99999999985812
100
AcDbArc
 50
269.99944276370621
 51
90.000557236276393
  0
LINE
  5
9C
330
1F
100
AcDbEntity
  8
0
 62
7
100
AcDbLine
 10
318.45097123350996
 20
173.85599342180032
 30
0
 11
316.29097123350874
 21
173.85599342180123
 31
0
  0
ARC
  5
9D
330
1F
100
AcDbEntity
  8
0
 62
7
100
AcDbCircle
 10
316.29099272294644
 20
170.85599342180222
 30
0
 40
3.00000000007594
100
AcDbArc
 50
90.0004104180281
 51
269.99958958197192
  0
LINE
  5
9E
330
1F
100
AcDbEntity
  8
0
 62
7
100
AcDbLine
 10
316.29097123350874
 20
167.85599342180322
 30
0
 11
318.45097123350905
 21
167.85599342180032
 31
0
  0
ARC
  5
9F
330
1F
100
AcDbEntity
  8
0
 62
7
100
AcDbCircle
 10
36.973741775669509
 20
163.23977811380576
 30
0
 40
1.99999999943424
100
AcDbArc
 50
169.99999998372306
 51
260.0000000161067
  0
LINE
  5
A0
330
1F
100
AcDbEntity
  8
0
 62
7
100
AcDbLine
 10
36.626445420987579
 20
161.27016260824087
 30
0
 11
109.96673411800458
 21
148.3382909378779
 31
0
  0
ARC
  5
A1
330
1F
100
AcDbEntity
  8
0
 62
7
100
AcDbCircle
 10
109.09849322992733
 20
143.41425217300446
 30
0
 40
4.99999999977045
100
AcDbArc
 50
349.999999997282
 51
80.000000002531479
  0
LINE
  5
A2
330
1F
100
AcDbEntity
  8
0
 62
7
100
AcDbLine
 10
114.02253199472102
 20
142.54601128447609
 30
0
 11
107.94484577631823
 21
108.07773992905936
 31
0
  0
ARC
  5
A3
330
1F
100
AcDbEntity
  8
0
 62
7
100
AcDbCircle
 10
122.71696207145493
 20
105.4730172640003
 30
0
 40
14.9999999999638
100
AcDbArc
 50
169.99999999976194
 51
260.0000000000303
  0
LINE
  5
A4
330
1F
100
AcDbEntity
  8
0
 62
7
100
AcDbLine
 10
120.11223940646505
 20
90.700900968851329
 30
0
 11
492.36957004496708
 21
25.061889810100958
 31
0
  0
ARC
  5
A5
330
1F
100
AcDbEntity
  8
0
 62
7
100
AcDbCircle
 10
494.97429270997168
 20
39.834006105315304
 30
0
 40
15.0000000000308
100
AcDbArc
 50
260.0000000000183
 51
349.99999999978206
  0
LINE
  5
A6
330
1F
100
AcDbEntity
  8
0
 62
7
100
AcDbLine
 10
509.74640900517545
 20
37.229283440249766
 30
0
 11
527.10630920609242
 21
135.68216983907141
 31
0
  0
ARC
  5
A7
330
1F
100
AcDbEntity
  8
0
 62
7
100
AcDbCircle
 10
525.13669369997149
 20
136.0294661943411
 30
0
 40
2.00000000008346
100
AcDbArc
 50
350.00000000229051
 51
79.999999997437655
  0
LINE
  5
A8
330
1F
100
AcDbEntity
  8
0
 62
7
100
AcDbLine
 10
525.483990055408
 20
137.99908170043236
 30
0
 11
519.5751435373345
 21
139.04097076644447
 31
0
  0
ARC
  5
A9
330
1F
100
AcDbEntity
  8
0
 62
7
100
AcDbCircle
 10
519.22784718185039
 20
137.07135526063027
 30
0
 40
1.99999999981914
100
AcDbArc
 50
79.9999999947155
 51
170.00000000508348
  0
LINE
  5
AA
330
1F
100
AcDbEntity
  8
0
 62
7
100
AcDbLine
 10
517.25823167597332
 20
137.41865161575797
 30
0
 11
499.89833147505647
 21
38.965765216936269
 31
0
  0
ARC
  5
AB
330
1F
100
AcDbEntity
  8
0
 62
7
100
AcDbCircle
 10
494.97429270990676
 20
39.834006105408072
 30
0
 40
5.00000000011098
100
AcDbArc
 50
260.00000000117279
 51
349.99999999862865
  0
LINE
  5
AC
330
1F
100
AcDbEntity
  8
0
 62
7
100
AcDbLine
 10
494.10605182165364
 20
34.90996734022
 30
0
 11
121.84872118315161
 21
100.54897849897037
 31
0
  0
ARC
  5
AD
330
1F
100
AcDbEntity
  8
0
 62
7
100
AcDbCircle
 10
122.71696207159266
 20
105.47301726409847
 30
0
 40
5.00000000008445
100
AcDbArc
 50
170.00000000086786
 51
259.99999999893271
  0
LINE
  5
AE
330
1F
100
AcDbEntity
  8
0
 62
7
100
AcDbLine
 10
117.79292330643534
 20
106.3412581523732
 30
0
 11
123.87060952483813
 21
140.80952950778988
 31
0
  0
ARC
  5
AF
330
1F
100
AcDbEntity
  8
0
 62
7
100
AcDbCircle
 10
109.09849322967295
 20
143.41425217282892
 30
0
 40
14.9999999999884
100
AcDbArc
 50
349.99999999985607
 51
79.999999999936591
  0
LINE
  5
B0
330
1F
100
AcDbEntity
  8
0
 62
7
100
AcDbLine
 10
111.70321589469125
 20
158.1863684679978
 30
0
 11
38.362927197673912
 21
171.11824013835906
 31
0
  0
ARC
  5
B1
330
1F
100
AcDbEntity
  8
0
 62
7
100
AcDbCircle
 10
38.015630842982659
 20
169.14862463141105
 30
0
 40
2.00000000079779
100
AcDbArc
 50
80.000000022724223
 51
169.99999997704523
  0
LINE
  5
B2
330
1F
100
AcDbEntity
  8
0
 62
7
100
AcDbLine
 10
36.046015336311712
 20
169.49592098767255
 30
0
 11
35.004126270300958
 21
163.58707446960091
 31
0
  0
LINE
  5
B3
330
1F
100
AcDbEntity
  8
0
 62
7
100
AcDbLine
 10
42.80380367413045
 20
162.21178090246974
 30
0
 11
44.930988420636027
 21
161.83670083870436
 31
0
  0
ARC
  5
B4
330
1F
100
AcDbEntity
  8
0
 62
7
100
AcDbCircle
 10
45.451950360280762
 20
164.79112102848069
 30
0
 40
2.99999999994839
100
AcDbArc
 50
259.99966242913104
 51
80.000337570667739
  0
LINE
  5
B5
330
1F
100
AcDbEntity
  8
0
 62
7
100
AcDbLine
 10
45.972877486648144
 20
167.74554735677668
 30
0
 11
43.84569274014234
 21
168.12062742054115
 31
0
  0
ARC
  5
B6
330
1F
100
AcDbEntity
  8
0
 62
7
100
AcDbCircle
 10
43.324737294782835
 20
165.16620608564779
 30
0
 40
2.99999999997954
100
AcDbArc
 50
79.999788374229439
 51
260.00021162557056
  0
ARC
  5
B7
330
1F
100
AcDbEntity
  8
0
 62
7
100
AcDbCircle
 10
520.77919661044575
 20
128.59318362076456
 30
0
 40
3.00000000013461
100
AcDbArc
 50
170.00037889588262
 51
349.99962110391613
  0
LINE
  5
B8
330
1F
100
AcDbEntity
  8
0
 62
7
100
AcDbLine
 10
523.73361642455234
 20
128.0722195501975
 30
0
 11
524.28234466593688
 21
131.18421204952082
 31
0
  0
ARC
  5
B9
330
1F
100
AcDbEntity
  8
0
 62
7
100
AcDbCircle
 10
521.32791530871737
 20
131.70512199803656
 30
0
 40
3.00000000021055
100
AcDbArc
 50
350.00067070453554
 51
169.9993292952631
  0
LINE
  5
BA
330
1F
100
AcDbEntity
  8
0
 62
7
100
AcDbLine
 10
518.37349814785557
 20
132.22610111553453
 30
0
 11
517.824769906345
 21
129.11410861623344
 31
0
  0
ARC
  5
BB
330
1F
100
AcDbEntity
  8
0
 62
7
100
AcDbCircle
 10
529.11795755771777
 20
141.33202458816169
 30
0
 40
14.0000000000078
100
AcDbArc
 50
350.00000000003212
 51
79.999999999972175
  0
LINE
  5
BC
330
1F
100
AcDbEntity
  8
0
 62
7
100
AcDbLine
 10
531.54903204506286
 20
155.11933313033916
 30
0
 11
474.43018237035585
 21
165.19092743502091
 31
0
  0
LINE
  5
BD
330
1F
100
AcDbEntity
  8
0
 62
7
100
AcDbLine
 10
474.43018237035585
 20
165.19092743502091
 30
0
 11
474.16971010385544
 21
163.7137158055026
 31
0
  0
LINE
  5
BE
330
1F
100
AcDbEntity
  8
0
 62
7
100
AcDbLine
 10
474.16971010385544
 20
163.7137158055026
 30
0
 11
478.60134499241235
 21
162.93229900600107
 31
0
  0
ARC
  5
BF
330
1F
100
AcDbEntity
  8
0
 62
7
100
AcDbCircle
 10
478.16721940411225
 20
160.47028053051997
 30
0
 40
2.50000000000546
100
AcDbArc
 50
260.00011971355718
 51
79.999880286443
  0
LINE
  5
C0
330
1F
100
AcDbEntity
  8
0
 62
7
100
AcDbLine
 10
477.73310410407771
 20
158.00826024094005
 30
0
 11
473.3014692155208
 21
158.78967704044157
 31
0
  0
LINE
  5
C1
330
1F
100
AcDbEntity
  8
0
 62
7
100
AcDbLine
 10
473.3014692155208
 20
158.78967704044157
 30
0
 11
473.04099694902038
 21
157.31246541092327
 31
0
  0
LINE
  5
C2
330
1F
100
AcDbEntity
  8
0
 62
7
100
AcDbLine
 10
473.04099694902038
 20
157.31246541092327
 30
0
 11
530.15984662372716
 21
147.24087110624038
 31
0
  0
ARC
  5
C3
330
1F
100
AcDbEntity
  8
0
 62
7
100
AcDbCircle
 10
529.11795755772937
 20
141.33202458816982
 30
0
 40
5.99999999999667
100
AcDbArc
 50
349.99999999997931
 51
80.000000000031179
  0
LINE
  5
C4
330
1F
100
AcDbEntity
  8
0
 62
7
100
AcDbLine
 10
535.026804075799
 20
140.29013552216668
 30
0
 11
518.13828953706707
 21
44.510610058307257
 31
0
  0
ARC
  5
C5
330
1F
100
AcDbEntity
  8
0
 62
7
100
AcDbCircle
 10
531.92559807920043
 20
42.079535570942333
 30
0
 40
13.9999999999678
100
AcDbArc
 50
169.99999999986088
 51
260.00000000013182
  0
LINE
  5
C6
330
1F
100
AcDbEntity
  8
0
 62
7
100
AcDbLine
 10
529.4945235919007
 20
28.292227028797516
 30
0
 11
564.94760270034487
 21
22.040892632814618
 31
0
  0
ARC
  5
C7
330
1F
100
AcDbEntity
  8
0
 62
7
100
AcDbCircle
 10
565.294899055774
 20
24.010508138702377
 30
0
 40
1.99999999988249
100
AcDbArc
 50
259.99999999663379
 51
350.00000000335172
  0
LINE
  5
C8
330
1F
100
AcDbEntity
  8
0
 62
7
100
AcDbLine
 10
567.264514561703
 20
23.663211783504138
 30
0
 11
567.95910727237072
 21
27.602442795553017
 31
0
  0
ARC
  5
C9
330
1F
100
AcDbEntity
  8
0
 62
7
100
AcDbCircle
 10
565.98949176581641
 20
27.949739150516265
 30
0
 40
2.00000000045743
100
AcDbArc
 50
350.000000013092
 51
79.999999986895361
  0
LINE
  5
CA
330
1F
100
AcDbEntity
  8
0
 62
7
100
AcDbLine
 10
566.33678812168012
 20
29.919354656911295
 30
0
 11
530.88370901323628
 21
36.170689052896186
 31
0
  0
ARC
  5
CB
330
1F
100
AcDbEntity
  8
0
 62
7
100
AcDbCircle
 10
531.9255980791753
 20
42.07953557092565
 30
0
 40
5.99999999994603
100
AcDbArc
 50
169.99999999949429
 51
260.0000000005158
  0
LINE
  5
CC
330
1F
100
AcDbEntity
  8
0
 62
7
100
AcDbLine
 10
526.01675156116448
 20
43.12142463697
 30
0
 11
542.90526609989774
 21
138.90095010083104
 31
0
  0
ARC
  5
CD
330
1F
100
AcDbEntity
  8
0
 62
7
100
AcDbCircle
 10
560.14595095852383
 20
26.940864264457151
 30
0
 40
2.99999999999909
100
AcDbArc
 50
79.99993496359
 51
260.00006503641083
  0
LINE
  5
CE
330
1F
100
AcDbEntity
  8
0
 62
7
100
AcDbLine
 10
559.62500977908724
 20
23.986440414095672
 30
0
 11
561.75146058666064
 21
23.611897622980038
 31
0
  0
ARC
  5
CF
330
1F
100
AcDbEntity
  8
0
 62
7
100
AcDbCircle
 10
562.27240511966147
 20
26.566320882016655
 30
0
 40
3.00000000000045
100
AcDbArc
 50
259.99999999999926
 51
80.000000000000412
  0
LINE
  5
D0
330
1F
100
AcDbEntity
  8
0
 62
7
100
AcDbLine
 10
562.79334965266241
 20
29.520744141054266
 30
0
 11
560.66689884508912
 21
29.895286932170894
 31
0
  0
ARC
  5
D1
330
1F
100
AcDbEntity
  8
0
 62
7
100
AcDbCircle
 10
393.34265210008851
 20
73.855993421992878
 30
0
 40
6.00000000019057
100
AcDbArc
 50
180.00000000181979
 51
269.99999999817993
  0
LINE
  5
D2
330
1F
100
AcDbEntity
  8
0
 62
7
100
AcDbLine
 10
387.34265209989792
 20
73.85599342180231
 30
0
 11
387.34265209989883
 21
144.85599342180228
 31
0
  0
ARC
  5
D3
330
1F
100
AcDbEntity
  8
0
 62
7
100
AcDbCircle
 10
372.34265209990724
 20
144.85599342181069
 30
0
 40
14.9999999999916
100
AcDbArc
 50
359.99999999996788
 51
90.000000000032131
  0
LINE
  5
D4
330
1F
100
AcDbEntity
  8
0
 62
7
100
AcDbLine
 10
372.34265209989883
 20
159.85599342180228
 30
0
 11
296.87097123351367
 21
159.85599342180231
 31
0
  0
ARC
  5
D5
330
1F
100
AcDbEntity
  8
0
 62
7
100
AcDbCircle
 10
296.87097123369091
 20
157.85599342162513
 30
0
 40
2.00000000017719
100
AcDbArc
 50
90.000000005077482
 51
179.99999999492414
  0
LINE
  5
D6
330
1F
100
AcDbEntity
  8
0
 62
7
100
AcDbLine
 10
294.87097123351367
 20
157.85599342180231
 30
0
 11
294.87097123351367
 21
153.85599342180123
 31
0
  0
ARC
  5
D7
330
1F
100
AcDbEntity
  8
0
 62
7
100
AcDbCircle
 10
296.87097123432369
 20
153.85599342261122
 30
0
 40
2.00000000081001
100
AcDbArc
 50
180.00000002320451
 51
269.9999999767947
  0
LINE
  5
D8
330
1F
100
AcDbEntity
  8
0
 62
7
100
AcDbLine
 10
296.87097123351367
 20
151.85599342180123
 30
0
 11
373.34265209989792
 21
151.85599342180228
 31
0
  0
ARC
  5
D9
330
1F
100
AcDbEntity
  8
0
 62
7
100
AcDbCircle
 10
373.34265209975035
 20
145.8559934216546
 30
0
 40
6.00000000014764
100
AcDbArc
 50
1.4102325012887879E-09
 51
89.999999998590866
  0
LINE
  5
DA
330
1F
100
AcDbEntity
  8
0
 62
7
100
AcDbLine
 10
379.34265209989792
 20
145.85599342180228
 30
0
 11
379.34265209989792
 21
74.85599342180231
 31
0
  0
ARC
  5
DB
330
1F
100
AcDbEntity
  8
0
 62
7
100
AcDbCircle
 10
394.34265209984744
 20
74.855993421751791
 30
0
 40
14.9999999999495
100
AcDbArc
 50
179.99999999980702
 51
270.00000000019628
  0
LINE
  5
DC
330
1F
100
AcDbEntity
  8
0
 62
7
100
AcDbLine
 10
394.34265209989883
 20
59.85599342180231
 30
0
 11
479.11433296629383
 21
59.8559934218023
 31
0
  0
LINE
  5
DD
330
1F
100
AcDbEntity
  8
0
 62
7
100
AcDbLine
 10
479.11433296629383
 20
59.8559934218023
 30
0
 11
479.11433296629383
 21
61.3559934218023
 31
0
  0
LINE
  5
DE
330
1F
100
AcDbEntity
  8
0
 62
7
100
AcDbLine
 10
479.11433296629383
 20
61.3559934218023
 30
0
 11
474.61433296629383
 21
61.3559934218023
 31
0
  0
ARC
  5
DF
330
1F
100
AcDbEntity
  8
0
 62
7
100
AcDbCircle
 10
474.61430926791877
 20
63.8559934218023
 30
0
 40
2.49999999988768
100
AcDbArc
 50
89.99945687325112
 51
270.00054312674888
  0
LINE
  5
E0
330
1F
100
AcDbEntity
  8
0
 62
7
100
AcDbLine
 10
474.61433296629383
 20
66.3559934218023
 30
0
 11
479.11433296629383
 21
66.3559934218023
 31
0
  0
LINE
  5
E1
330
1F
100
AcDbEntity
  8
0
 62
7
100
AcDbLine
 10
479.11433296629383
 20
66.3559934218023
 30
0
 11
479.11433296629383
 21
67.8559934218023
 31
0
  0
LINE
  5
E2
330
1F
100
AcDbEntity
  8
0
 62
7
100
AcDbLine
 10
479.11433296629383
 20
67.8559934218023
 30
0
 11
393.34265209989792
 21
67.85599342180231
 31
0
  0
ARC
  5
E3
330
1F
100
AcDbEntity
  8
0
 62
7
100
AcDbCircle
 10
303.45100041033317
 20
155.85599342180032
 30
0
 40
2.99999999985812
100
AcDbArc
 50
269.99944276370621
 51
90.000557236276393
  0
LINE
  5
E4
330
1F
100
AcDbEntity
  8
0
 62
7
100
AcDbLine
 10
303.45097123350996
 20
158.85599342180032
 30
0
 11
301.29097123350874
 21
158.85599342180123
 31
0
  0
ARC
  5
E5
330
1F
100
AcDbEntity
  8
0
 62
7
100
AcDbCircle
 10
301.29099272294644
 20
155.85599342180222
 30
0
 40
3.00000000007594
100
AcDbArc
 50
90.0004104180281
 51
269.99958958197192
  0
LINE
  5
E6
330
1F
100
AcDbEntity
  8
0
 62
7
100
AcDbLine
 10
301.29097123350874
 20
152.85599342180322
 30
0
 11
303.45097123350905
 21
152.85599342180032
 31
0
  0
ARC
  5
E7
330
1F
100
AcDbEntity
  8
0
 62
7
100
AcDbCircle
 10
94.528319099905787
 20
36.000000100838456
 30
0
 40
14.0000000000078
100
AcDbArc
 50
180.00000000003203
 51
269.99999999997254
  0
LINE
  5
E8
330
1F
100
AcDbEntity
  8
0
 62
7
100
AcDbLine
 10
94.528319099899079
 20
22.000000100830629
 30
0
 11
152.528319099898
 21
22.000000100830626
 31
0
  0
LINE
  5
E9
330
1F
100
AcDbEntity
  8
0
 62
7
100
AcDbLine
 10
152.528319099898
 20
22.000000100830626
 30
0
 11
152.528319099898
 21
23.500000100830626
 31
0
  0
LINE
  5
EA
330
1F
100
AcDbEntity
  8
0
 62
7
100
AcDbLine
 10
152.528319099898
 20
23.500000100830626
 30
0
 11
148.028319099896
 21
23.500000100830626
 31
0
  0
ARC
  5
EB
330
1F
100
AcDbEntity
  8
0
 62
7
100
AcDbCircle
 10
148.02832432338533
 20
26.000000100830626
 30
0
 40
2.50000000000546
100
AcDbArc
 50
90.000119713557055
 51
269.99988028644293
  0
LINE
  5
EC
330
1F
100
AcDbEntity
  8
0
 62
7
100
AcDbLine
 10
148.028319099896
 20
28.500000100830626
 30
0
 11
152.528319099898
 21
28.500000100830626
 31
0
  0
LINE
  5
ED
330
1F
100
AcDbEntity
  8
0
 62
7
100
AcDbLine
 10
152.528319099898
 20
28.500000100830626
 30
0
 11
152.528319099898
 21
30.000000100830626
 31
0
  0
LINE
  5
EE
330
1F
100
AcDbEntity
  8
0
 62
7
100
AcDbLine
 10
152.528319099898
 20
30.000000100830626
 30
0
 11
94.528319099899079
 21
30.00000010083177
 31
0
  0
ARC
  5
EF
330
1F
100
AcDbEntity
  8
0
 62
7
100
AcDbCircle
 10
94.528319099895782
 20
36.00000010082843
 30
0
 40
5.99999999999667
100
AcDbArc
 50
179.99999999997902
 51
270.00000000003143
  0
LINE
  5
F0
330
1F
100
AcDbEntity
  8
0
 62
7
100
AcDbLine
 10
88.528319099899136
 20
36.000000100830626
 30
0
 11
88.528319099899136
 21
133.25707913062183
 31
0
  0
ARC
  5
F1
330
1F
100
AcDbEntity
  8
0
 62
7
100
AcDbCircle
 10
74.528319099931309
 20
133.25707913065582
 30
0
 40
13.9999999999678
100
AcDbArc
 50
359.99999999986085
 51
90.000000000131678
  0
LINE
  5
F2
330
1F
100
AcDbEntity
  8
0
 62
7
100
AcDbLine
 10
74.528319099899136
 20
147.25707913062362
 30
0
 11
38.528319099899022
 21
147.25707913059662
 31
0
  0
ARC
  5
F3
330
1F
100
AcDbEntity
  8
0
 62
7
100
AcDbCircle
 10
38.528319099781584
 20
145.25707913071463
 30
0
 40
1.99999999988249
100
AcDbArc
 50
89.999999996635637
 51
180.00000000335214
  0
LINE
  5
F4
330
1F
100
AcDbEntity
  8
0
 62
7
100
AcDbLine
 10
36.528319099899022
 20
145.25707913059762
 30
0
 11
36.528319099899022
 21
141.25707913059762
 31
0
  0
ARC
  5
F5
330
1F
100
AcDbEntity
  8
0
 62
7
100
AcDbCircle
 10
38.5283191003565
 20
141.25707913105464
 30
0
 40
2.00000000045743
100
AcDbArc
 50
180.00000001309269
 51
269.9999999868943
  0
LINE
  5
F6
330
1F
100
AcDbEntity
  8
0
 62
7
100
AcDbLine
 10
38.528319099899022
 20
139.25707913059762
 30
0
 11
74.528319099899136
 21
139.25707913062263
 31
0
  0
ARC
  5
F7
330
1F
100
AcDbEntity
  8
0
 62
7
100
AcDbCircle
 10
74.528319099953023
 20
133.25707913067663
 30
0
 40
5.99999999994603
100
AcDbArc
 50
359.99999999949381
 51
90.000000000514589
  0
LINE
  5
F8
330
1F
100
AcDbEntity
  8
0
 62
7
100
AcDbLine
 10
80.528319099899136
 20
133.25707913062362
 30
0
 11
80.528319099898
 21
36.000000100830626
 31
0
  0
ARC
  5
F9
330
1F
100
AcDbEntity
  8
0
 62
7
100
AcDbCircle
 10
44.107894106963386
 20
143.26534715297362
 30
0
 40
2.99999999999909
100
AcDbArc
 50
269.999934963588
 51
90.000065036412039
  0
LINE
  5
FA
330
1F
100
AcDbEntity
  8
0
 62
7
100
AcDbLine
 10
44.107890701664815
 20
146.26534715297461
 30
0
 11
41.948706786831963
 21
146.26494548986662
 31
0
  0
ARC
  5
FB
330
1F
100
AcDbEntity
  8
0
 62
7
100
AcDbCircle
 10
41.948706786831963
 20
143.26494548986662
 30
0
 40
3.00000000000045
100
AcDbArc
 50
90
 51
270
  0
LINE
  5
FC
330
1F
100
AcDbEntity
  8
0
 62
7
100
AcDbLine
 10
41.948706786831963
 20
140.26494548986562
 30
0
 11
44.107890701664815
 21
140.26534715297262
 31
0
  0
ARC
  5
FD
330
1F
100
AcDbEntity
  8
0
 62
7
100
AcDbCircle
 10
97.528319099332236
 20
62.000000100262305
 30
0
 40
1.99999999943424
100
AcDbArc
 50
179.99999998371882
 51
270.00000001610692
  0
LINE
  5
FE
330
1F
100
AcDbEntity
  8
0
 62
7
100
AcDbLine
 10
97.528319099894475
 20
60.000000100828068
 30
0
 11
171.99999996625155
 21
60.00000010069909
 31
0
  0
ARC
  5
FF
330
1F
100
AcDbEntity
  8
0
 62
7
100
AcDbCircle
 10
171.99999996647233
 20
55.000000100928624
 30
0
 40
4.99999999977045
100
AcDbArc
 50
359.99999999727982
 51
90.000000002529958
  0
LINE
  5
100
330
1F
100
AcDbEntity
  8
0
 62
7
100
AcDbLine
 10
176.9999999662428
 20
55.000000100691246
 30
0
 11
176.99999996618152
 21
20.000000100691242
 31
0
  0
ARC
  5
101
330
1F
100
AcDbEntity
  8
0
 62
7
100
AcDbCircle
 10
191.99999996614531
 20
20.000000100628828
 30
0
 40
14.9999999999638
100
AcDbArc
 50
179.9999999997616
 51
270.00000000003035
  0
LINE
  5
102
330
1F
100
AcDbEntity
  8
0
 62
7
100
AcDbLine
 10
191.99999996615327
 20
5.0000001006650363
 30
0
 11
569.9999999661552
 21
5.0000001000035263
 31
0
  0
ARC
  5
103
330
1F
100
AcDbEntity
  8
0
 62
7
100
AcDbCircle
 10
569.99999996615043
 20
20.000000100034335
 30
0
 40
15.0000000000308
100
AcDbArc
 50
270.00000000001819
 51
359.999999999782
  0
LINE
  5
104
330
1F
100
AcDbEntity
  8
0
 62
7
100
AcDbLine
 10
584.99999996618146
 20
20.000000099977264
 30
0
 11
584.99999996635836
 21
119.97168096633604
 31
0
  0
ARC
  5
105
330
1F
100
AcDbEntity
  8
0
 62
7
100
AcDbCircle
 10
582.99999996627434
 20
119.97168096625612
 30
0
 40
2.00000000008346
100
AcDbArc
 50
2.2895922595583256E-09
 51
89.999999997436831
  0
LINE
  5
106
330
1F
100
AcDbEntity
  8
0
 62
7
100
AcDbLine
 10
582.99999996636382
 20
121.97168096633945
 30
0
 11
576.99999996636188
 21
121.97168096635002
 31
0
  0
ARC
  5
107
330
1F
100
AcDbEntity
  8
0
 62
7
100
AcDbCircle
 10
576.99999996617737
 20
119.97168096653101
 30
0
 40
1.99999999981914
100
AcDbArc
 50
89.999999994714074
 51
180.000000005084
  0
LINE
  5
108
330
1F
100
AcDbEntity
  8
0
 62
7
100
AcDbLine
 10
574.99999996635836
 20
119.97168096635355
 30
0
 11
574.99999996618146
 21
20.000000099994772
 31
0
  0
ARC
  5
109
330
1F
100
AcDbEntity
  8
0
 62
7
100
AcDbCircle
 10
569.9999999660705
 20
20.000000100114541
 30
0
 40
5.00000000011098
100
AcDbArc
 50
270.00000000117114
 51
359.99999999862752
  0
LINE
  5
10A
330
1F
100
AcDbEntity
  8
0
 62
7
100
AcDbLine
 10
569.99999996617271
 20
15.000000100003527
 30
0
 11
191.99999996617072
 21
15.000000100665037
 31
0
  0
ARC
  5
10B
330
1F
100
AcDbEntity
  8
0
 62
7
100
AcDbCircle
 10
191.99999996626394
 20
20.00000010074945
 30
0
 40
5.00000000008445
100
AcDbArc
 50
180.00000000086763
 51
269.99999999893174
  0
LINE
  5
10C
330
1F
100
AcDbEntity
  8
0
 62
7
100
AcDbLine
 10
186.99999996617947
 20
20.000000100673734
 30
0
 11
186.99999996624075
 21
55.000000100673731
 31
0
  0
ARC
  5
10D
330
1F
100
AcDbEntity
  8
0
 62
7
100
AcDbCircle
 10
171.99999996625235
 20
55.000000100711596
 30
0
 40
14.9999999999884
100
AcDbArc
 50
359.99999999985539
 51
89.999999999936179
  0
LINE
  5
10E
330
1F
100
AcDbEntity
  8
0
 62
7
100
AcDbLine
 10
171.99999996626906
 20
70.000000100699992
 30
0
 11
97.528319099911982
 21
70.000000100827151
 31
0
  0
ARC
  5
10F
330
1F
100
AcDbEntity
  8
0
 62
7
100
AcDbCircle
 10
97.528319100705176
 20
68.000000100029354
 30
0
 40
2.00000000079779
100
AcDbArc
 50
90.000000022723313
 51
179.99999997704546
  0
LINE
  5
110
330
1F
100
AcDbEntity
  8
0
 62
7
100
AcDbLine
 10
95.528319099907378
 20
68.000000100830619
 30
0
 11
95.528319099898
 21
62.000000100830626
 31
0
  0
LINE
  5
111
330
1F
100
AcDbEntity
  8
0
 62
7
100
AcDbLine
 10
103.44831909987283
 20
62.000000100816813
 30
0
 11
105.60831909987292
 21
62.000000100812095
 31
0
  0
ARC
  5
112
330
1F
100
AcDbEntity
  8
0
 62
7
100
AcDbCircle
 10
105.60833677504235
 20
65.000000100812542
 30
0
 40
2.99999999994839
100
AcDbArc
 50
269.99966242912978
 51
90.000337570670439
  0
LINE
  5
113
330
1F
100
AcDbEntity
  8
0
 62
7
100
AcDbLine
 10
105.60831909988337
 20
68.000000100813
 30
0
 11
103.44831909988335
 21
68.0000001008168
 31
0
  0
ARC
  5
114
330
1F
100
AcDbEntity
  8
0
 62
7
100
AcDbCircle
 10
103.44830801918386
 20
65.0000001008168
 30
0
 40
2.99999999997954
100
AcDbArc
 50
89.999788374228316
 51
270.00021162557084
  0
ARC
  5
115
330
1F
100
AcDbEntity
  8
0
 62
7
100
AcDbCircle
 10
579.99999996629924
 20
111.89170080542326
 30
0
 40
3.00000000013461
100
AcDbArc
 50
180.0003788958837
 51
359.99962110391436
  0
LINE
  5
116
330
1F
100
AcDbEntity
  8
0
 62
7
100
AcDbLine
 10
582.99999996636825
 20
111.8916809664706
 30
0
 11
582.99999996635984
 21
115.05168096627082
 31
0
  0
ARC
  5
117
330
1F
100
AcDbEntity
  8
0
 62
7
100
AcDbCircle
 10
579.99999996635484
 20
115.05164584826341
 30
0
 40
3.00000000021055
100
AcDbArc
 50
0.00067070453661454636
 51
179.99932929526148
  0
LINE
  5
118
330
1F
100
AcDbEntity
  8
0
 62
7
100
AcDbLine
 10
576.99999996634983
 20
115.0516809662814
 30
0
 11
576.99999996623023
 21
111.89168096648118
 31
0
  0
LINE
  5
119
330
1F
100
AcDbEntity
  8
0
 62
7
100
AcDbLine
 10
226.875714357324
 20
49.536234100830619
 30
0
 11
222.62133400448329
 21
25.40844415203167
 31
0
  0
ARC
  5
11A
330
1F
100
AcDbEntity
  8
0
 62
7
100
AcDbCircle
 10
224.59094951042397
 20
25.061147796639169
 30
0
 40
1.99999999992767
100
AcDbArc
 50
169.99999999792902
 51
260.00000000207189
  0
LINE
  5
11B
330
1F
100
AcDbEntity
  8
0
 62
7
100
AcDbLine
 10
224.24365315517389
 20
23.091532290673406
 30
0
 11
230.15249967324712
 21
22.049643224671819
 31
0
  0
ARC
  5
11C
330
1F
100
AcDbEntity
  8
0
 62
7
100
AcDbCircle
 10
230.49979602848327
 20
24.019258730835723
 30
0
 40
2.00000000012044
100
AcDbArc
 50
260.00000000345045
 51
349.9999999965508
  0
LINE
  5
11D
330
1F
100
AcDbEntity
  8
0
 62
7
100
AcDbLine
 10
232.4694115346054
 20
23.671962375362376
 30
0
 11
236.72379188744611
 21
47.799752324161318
 31
0
  0
ARC
  5
11E
330
1F
100
AcDbEntity
  8
0
 62
7
100
AcDbCircle
 10
241.64783065254147
 20
46.931511435777637
 30
0
 40
5.00000000004233
100
AcDbArc
 50
80.00000000048513
 51
169.99999999951498
  0
LINE
  5
11F
330
1F
100
AcDbEntity
  8
0
 62
7
100
AcDbLine
 10
242.51607154084178
 20
51.8555502008877
 30
0
 11
382.02132612467665
 21
27.257009867129867
 31
0
  0
ARC
  5
120
330
1F
100
AcDbEntity
  8
0
 62
7
100
AcDbCircle
 10
382.36862248012824
 20
29.226625372986788
 30
0
 40
1.99999999985548
100
AcDbArc
 50
259.99999999584531
 51
350.00000000413957
  0
LINE
  5
121
330
1F
100
AcDbEntity
  8
0
 62
7
100
AcDbLine
 10
384.33823798603487
 20
28.879329017820424
 30
0
 11
385.38012705203647
 21
34.788175535893672
 31
0
  0
ARC
  5
122
330
1F
100
AcDbEntity
  8
0
 62
7
100
AcDbCircle
 10
383.41051154550468
 20
35.135471890872147
 30
0
 40
2.00000000043813
100
AcDbArc
 50
350.0000000125504
 51
79.999999987423337
  0
LINE
  5
123
330
1F
100
AcDbEntity
  8
0
 62
7
100
AcDbLine
 10
383.75780790134695
 20
37.105087397251772
 30
0
 11
244.25255331751111
 21
61.703627731009782
 31
0
  0
ARC
  5
124
330
1F
100
AcDbEntity
  8
0
 62
7
100
AcDbCircle
 10
241.64783065248844
 20
46.931511435853345
 30
0
 40
14.999999999977
100
AcDbArc
 50
79.999999999911878
 51
170.00000000008797
  0
LINE
  5
125
330
1F
100
AcDbEntity
  8
0
 62
7
100
AcDbLine
 10
378.07285352467818
 20
36.076645014184777
 30
0
 11
374.96086102516779
 21
36.625373255606675
 31
0
  0
ARC
  5
126
330
1F
100
AcDbEntity
  8
0
 62
7
100
AcDbCircle
 10
374.43990259348595
 20
33.670952447284634
 30
0
 40
2.99999999996476
100
AcDbArc
 50
79.9997304598172
 51
260.00026954018279
  0
LINE
  5
127
330
1F
100
AcDbEntity
  8
0
 62
7
100
AcDbLine
 10
373.91897195916692
 20
30.716526737537507
 30
0
 11
377.03096445868061
 21
30.167798496110876
 31
0
  0
ARC
  5
128
330
1F
100
AcDbEntity
  8
0
 62
7
100
AcDbCircle
 10
377.55189562683074
 20
33.122224111731256
 30
0
 40
3.0000000000307
100
AcDbArc
 50
260.00025918748588
 51
79.999740812591824
  0
ARC
  5
129
330
1F
100
AcDbEntity
  8
0
 62
7
100
AcDbCircle
 10
228.68797540895241
 20
31.020224839624909
 30
0
 40
3.00000000004206
100
AcDbArc
 50
350.00026062332358
 51
169.99973937650822
  0
LINE
  5
12A
330
1F
100
AcDbEntity
  8
0
 62
7
100
AcDbLine
 10
225.73355451954512
 20
31.541182811525083
 30
0
 11
225.1848262781217
 21
28.429190311995818
 31
0
  0
ARC
  5
12B
330
1F
100
AcDbEntity
  8
0
 62
7
100
AcDbCircle
 10
228.13924735741313
 20
27.9082334170107
 30
0
 40
2.99999999997976
100
AcDbArc
 50
169.99976026134178
 51
350.00023973867587
  0
LINE
  5
12C
330
1F
100
AcDbEntity
  8
0
 62
7
100
AcDbLine
 10
231.093672796207
 20
27.387301245993051
 30
0
 11
231.64240103763854
 21
30.499293745511004
 31
0
  0
LINE
  5
12D
330
1F
100
AcDbEntity
  8
0
 62
7
100
AcDbLine
 10
170.000000099898
 20
20.000000100830626
 30
0
 11
170.00000009989878
 21
44.500000100830633
 31
0
  0
ARC
  5
12E
330
1F
100
AcDbEntity
  8
0
 62
7
100
AcDbCircle
 10
168.00000009997109
 20
44.500000100902923
 30
0
 40
1.99999999992767
100
AcDbArc
 50
359.999999997929
 51
90.000000002071374
  0
LINE
  5
12F
330
1F
100
AcDbEntity
  8
0
 62
7
100
AcDbLine
 10
168.00000009989878
 20
46.500000100830626
 30
0
 11
162.00000009989878
 21
46.500000100830604
 31
0
  0
ARC
  5
130
330
1F
100
AcDbEntity
  8
0
 62
7
100
AcDbCircle
 10
162.00000010001924
 20
44.500000100710196
 30
0
 40
2.00000000012044
100
AcDbArc
 50
90.000000003450666
 51
179.99999999655074
  0
LINE
  5
131
330
1F
100
AcDbEntity
  8
0
 62
7
100
AcDbLine
 10
160.00000009989878
 20
44.5000001008306
 30
0
 11
160.000000099898
 21
20.000000100830594
 31
0
  0
ARC
  5
132
330
1F
100
AcDbEntity
  8
0
 62
7
100
AcDbCircle
 10
155.0000000998557
 20
20.000000100872903
 30
0
 40
5.00000000004233
100
AcDbArc
 50
270.00000000048459
 51
359.99999999951518
  0
LINE
  5
133
330
1F
100
AcDbEntity
  8
0
 62
7
100
AcDbLine
 10
155.000000099898
 20
15.000000100830581
 30
0
 11
13.342652097572
 21
15.00000010085423
 31
0
  0
ARC
  5
134
330
1F
100
AcDbEntity
  8
0
 62
7
100
AcDbCircle
 10
13.342652097426935
 20
13.000000100998747
 30
0
 40
1.99999999985548
100
AcDbArc
 50
89.9999999958442
 51
180.0000000041403
  0
LINE
  5
135
330
1F
100
AcDbEntity
  8
0
 62
7
100
AcDbLine
 10
11.342652097572
 20
13.000000100854223
 30
0
 11
11.342652097572
 21
7.0000001008542228
 31
0
  0
ARC
  5
136
330
1F
100
AcDbEntity
  8
0
 62
7
100
AcDbCircle
 10
13.342652098009921
 20
7.0000001012923292
 30
0
 40
2.00000000043813
100
AcDbArc
 50
180.00000001255083
 51
269.99999998742516
  0
LINE
  5
137
330
1F
100
AcDbEntity
  8
0
 62
7
100
AcDbLine
 10
13.342652097570976
 20
5.00000010085423
 30
0
 11
155.00000009989805
 21
5.0000001008305812
 31
0
  0
ARC
  5
138
330
1F
100
AcDbEntity
  8
0
 62
7
100
AcDbCircle
 10
155.000000099921
 20
20.000000100807547
 30
0
 40
14.999999999977
100
AcDbArc
 50
269.99999999991229
 51
8.8153101699493188E-11
  0
LINE
  5
139
330
1F
100
AcDbEntity
  8
0
 62
7
100
AcDbLine
 10
18.76265209758003
 20
7.0000001008531489
 30
0
 11
21.922652097571017
 21
7.0000001008572559
 31
0
  0
ARC
  5
13A
330
1F
100
AcDbEntity
  8
0
 62
7
100
AcDbCircle
 10
21.922666210661873
 20
10.000000100855168
 30
0
 40
2.99999999996476
100
AcDbArc
 50
269.99973045981938
 51
90.000269540182813
  0
LINE
  5
13B
330
1F
100
AcDbEntity
  8
0
 62
7
100
AcDbLine
 10
21.922652097570904
 20
13.000000100853121
 30
0
 11
18.762652097575938
 21
13.000000100853107
 31
0
  0
ARC
  5
13C
330
1F
100
AcDbEntity
  8
0
 62
7
100
AcDbCircle
 10
18.762665668600903
 20
10.000000100853107
 30
0
 40
3.0000000000307
100
AcDbArc
 50
90.000259187484716
 51
269.99974081259342
  0
ARC
  5
13D
330
1F
100
AcDbEntity
  8
0
 62
7
100
AcDbCircle
 10
165.00000009989986
 20
37.920013747039818
 30
0
 40
3.00000000004206
100
AcDbArc
 50
180.0002606233237
 51
359.99973937650873
  0
LINE
  5
13E
330
1F
100
AcDbEntity
  8
0
 62
7
100
AcDbLine
 10
168.00000009991089
 20
37.920000100825725
 30
0
 11
168.00000009990498
 21
41.080000100835527
 31
0
  0
ARC
  5
13F
330
1F
100
AcDbEntity
  8
0
 62
7
100
AcDbCircle
 10
165.00000009989895
 20
41.080012653522317
 30
0
 40
2.99999999997976
100
AcDbArc
 50
359.99976026134175
 51
180.000239738676
  0
LINE
  5
140
330
1F
100
AcDbEntity
  8
0
 62
7
100
AcDbLine
 10
162.00000009989293
 20
41.080000100834596
 30
0
 11
162.00000009988884
 21
37.9200001008345
 31
0
  0
ENDSEC
  0
SECTION
  2
OBJECTS
  0
DICTIONARY
  5
C
330
0
100
AcDbDictionary
280
0
281
1
  3
ACAD_SCALELIST
350
146
  3
ACAD_COLOR
350
158
  3
ACAD_FIELDLIST
350
159
  3
ACAD_GROUP
350
D
  3
ACAD_IMAGE_DICT
350
15A
  3
ACAD_LAYOUT
350
1A
  3
ACAD_MATERIAL
350
15B
  3
ACAD_MLEADERSTYLE
350
15C
  3
ACAD_MLINESTYLE
350
17
  3
ACAD_PLOTSETTINGS
350
19
  3
ACAD_PLOTSTYLENAME
350
E
  3
ACAD_TABLESTYLE
350
15E
  3
ACDB_RECOMPOSE_DATA
350
162
  3
AcDbVariableDictionary
350
163
  3
ACAD_VISUALSTYLE
350
166
  3
DWGPROPS
350
167
  0
DICTIONARY
  5
160
330
15F
100
AcDbDictionary
280
0
281
1
  3
ACAD_ROUNDTRIP_2008_TABLESTYLE_CELLSTYLEMAP
360
161
  0
DICTIONARY
  5
146
102
{ACAD_REACTORS
330
C
102
}
330
C
100
AcDbDictionary
280
0
281
1
  0
DICTIONARY
  5
158
102
{ACAD_REACTORS
330
C
102
}
330
C
100
AcDbDictionary
280
0
281
1
  0
FIELDLIST
  5
159
102
{ACAD_REACTORS
330
C
102
}
330
C
100
AcDbIdSet
100
AcDbFieldList
  0
DICTIONARY
  5
D
102
{ACAD_REACTORS
330
C
102
}
330
C
100
AcDbDictionary
280
0
281
1
  0
DICTIONARY
  5
15A
102
{ACAD_REACTORS
330
C
102
}
330
C
100
AcDbDictionary
280
0
281
1
  0
DICTIONARY
  5
1A
102
{ACAD_REACTORS
330
C
102
}
330
C
100
AcDbDictionary
280
0
281
1
  3
Layout1
350
1E
  3
Model
350
22
  0
DICTIONARY
  5
15B
102
{ACAD_REACTORS
330
C
102
}
330
C
100
AcDbDictionary
280
0
281
1
  0
DICTIONARY
  5
15C
102
{ACAD_REACTORS
330
C
102
}
330
C
100
AcDbDictionary
280
0
281
1
  3
Standard
350
15D
  0
DICTIONARY
  5
17
102
{ACAD_REACTORS
330
C
102
}
330
C
100
AcDbDictionary
280
0
281
1
  3
STANDARD
350
18
  0
DICTIONARY
  5
19
102
{ACAD_REACTORS
330
C
102
}
330
C
100
AcDbDictionary
280
0
281
1
  0
ACDBDICTIONARYWDFLT
  5
E
102
{ACAD_REACTORS
330
C
102
}
330
C
100
AcDbDictionary
280
0
281
1
  3
Normal
350
F
100
AcDbDictionaryWithDefault
340
F
  0
ACDBPLACEHOLDER
  5
F
102
{ACAD_REACTORS
330
E
102
}
330
E
  0
DICTIONARY
  5
15E
102
{ACAD_REACTORS
330
C
102
}
330
C
100
AcDbDictionary
280
0
281
1
  3
Standard
350
15F
  0
XRECORD
  5
162
102
{ACAD_REACTORS
330
C
102
}
330
C
100
AcDbXrecord
280
1
 90
1
330
15F
  0
DICTIONARY
  5
163
102
{ACAD_REACTORS
330
C
102
}
330
C
100
AcDbDictionary
280
0
281
1
  3
DIMASSOC
350
164
  3
HIDETEXT
350
165
  0
DICTIONARY
  5
166
102
{ACAD_REACTORS
330
C
102
}
330
C
100
AcDbDictionary
280
0
281
1
  0
XRECORD
  5
167
102
{ACAD_REACTORS
330
C
102
}
330
C
100
AcDbXrecord
280
0
  1
DWGPROPS COOKIE
  2

  3

  4

  6

  7

  8

  9

300
=
301
=
302
=
303
=
304
=
305
=
306
=
307
=
308
=
309
=
 40
0
 41
2461026.3150083679
 42
2461026.3150083679
  1

 90
0
  0
CELLSTYLEMAP
  5
161
102
{ACAD_REACTORS
330
160
102
}
330
160
100
AcDbCellStyleMap
 90
3
300
CELLSTYLE
  1
TABLEFORMAT_BEGIN
 90
5
170
0
309
TABLEFORMAT_END
  1
CELLSTYLE_BEGIN
 90
3
 91
2
300
_DATA
309
CELLSTYLE_END
300
CELLSTYLE
  1
TABLEFORMAT_BEGIN
 90
5
170
0
309
TABLEFORMAT_END
  1
CELLSTYLE_BEGIN
 90
1
 91
2
300
_TITLE
309
CELLSTYLE_END
300
CELLSTYLE
  1
TABLEFORMAT_BEGIN
 90
5
170
0
309
TABLEFORMAT_END
  1
CELLSTYLE_BEGIN
 90
2
 91
2
300
_HEADER
309
CELLSTYLE_END
  0
LAYOUT
  5
1E
102
{ACAD_REACTORS
330
1A
102
}
330
1A
100
AcDbPlotSettings
  1

  2
C:\Program Files\AutoCAD 2002\plotters\DWF ePlot (optimized for plotting).pc3
  4

  6

 40
0
 41
0
 42
0
 43
0
 44
0
 45
0
 46
0
 47
0
 48
0
 49
0
140
0
141
0
142
1
143
1
 70
688
 72
1
 73
1
 74
1
  7
acad.stb
 75
16
 76
0
 77
0
 78
0
147
1
148
0
149
0
100
AcDbLayout
  1
Layout1
 70
1
 71
1
 10
0
 20
0
 11
420
 21
297
 12
0
 22
0
 32
0
 14
0
 24
0
 34
0
 15
0
 25
0
 35
0
146
0
 13
0
 23
0
 33
0
 16
1
 26
0
 36
0
 17
0
 27
1
 37
0
 76
0
330
141
  0
LAYOUT
  5
22
102
{ACAD_REACTORS
330
1A
102
}
330
1A
100
AcDbPlotSettings
  1

  2
C:\Program Files\AutoCAD 2002\plotters\DWF ePlot (optimized for plotting).pc3
  4

  6

 40
0
 41
0
 42
0
 43
0
 44
0
 45
0
 46
0
 47
0
 48
0
 49
0
140
0
141
0
142
1
143
1
 70
1712
 72
1
 73
1
 74
0
  7
acad.stb
 75
0
 76
0
 77
0
 78
0
147
1
148
0
149
0
100
AcDbLayout
  1
Model
 70
1
 71
0
 10
0
 20
0
 11
12
 21
9
 12
0
 22
0
 32
0
 14
0
 24
0
 34
0
 15
0
 25
0
 35
0
146
0
 13
0
 23
0
 33
0
 16
1
 26
0
 36
0
 17
0
 27
1
 37
0
 76
0
330
1F
  0
MLEADERSTYLE
  5
15D
102
{ACAD_REACTORS
330
15C
102
}
330
15C
100
AcDbMLeaderStyle
170
2
171
1
172
0
 90
2
 40
0
 41
0
173
1
 91
0
340
0
 92
-2
290
1
 42
0.09
292
1
 43
0.36
  3
Standard
341
0
 44
0.18
300

342
0
174
1
178
1
175
1
176
0
 93
0
 45
0.18
292
0
297
0
 46
0
343
0
 94
0
 47
1
 49
1
140
1
293
1
141
0
294
1
177
0
142
1
295
0
296
0
143
0.125
  0
MLINESTYLE
  5
18
102
{ACAD_REACTORS
330
17
102
}
330
17
100
AcDbMlineStyle
  2
STANDARD
 70
0
  3

 51
90
 52
90
 71
2
 49
0.5
 62
0
  6
ByLayer
 49
-0.5
 62
0
  6
ByLayer
  0
TABLESTYLE
  5
15F
102
{ACAD_XDICTIONARY
360
160
102
}
102
{ACAD_REACTORS
330
15E
102
}
330
15E
100
AcDbTableStyle
  3

 70
0
 71
0
 40
0.06
 41
0.06
280
0
281
0
  7
Standard
140
0.18
170
1
 62
0
283
0
 90
512
 91
0
274
-2
284
1
 64
0
275
-2
285
1
 65
0
276
-2
286
1
 66
0
277
-2
287
1
 67
0
278
-2
288
1
 68
0
279
-2
289
1
 69
0
  7
Standard
140
0.18
170
1
 62
0
283
0
 90
512
 91
0
274
-2
284
1
 64
0
275
-2
285
1
 65
0
276
-2
286
1
 66
0
277
-2
287
1
 67
0
278
-2
288
1
 68
0
279
-2
289
1
 69
0
  7
Standard
140
0.18
170
1
 62
0
283
0
 90
512
 91
0
274
-2
284
1
 64
0
275
-2
285
1
 65
0
276
-2
286
1
 66
0
277
-2
287
1
 67
0
278
-2
288
1
 68
0
279
-2
289
1
 69
0
  0
DICTIONARYVAR
  5
164
102
{ACAD_REACTORS
330
163
102
}
330
163
100
DictionaryVariables
280
0
  1
1
  0
DICTIONARYVAR
  5
165
102
{ACAD_REACTORS
330
163
102
}
330
163
100
DictionaryVariables
280
0
  1
2
  0
ENDSEC
999
Created By CadLib version 4.0.38.30
999
CadLib website: www.woutware.com
  0
EOF
