  0
SECTION
  2
HEADER
  9
$ACADVER
  1
AC1015
  9
$DWGCODEPAGE
  3
ansi_1252
  9
$INSBASE
 10
0
 20
0
 30
0
  9
$EXTMIN
 10
9.9999965641472954E-08
 20
1E-07
 30
0
  9
$EXTMAX
 10
590.0000001
 20
200.00000010000002
 30
0
  9
$LIMMIN
 10
0
 20
0
  9
$LIMMAX
 10
12
 20
9
  9
$SNAPMODE
 70
0
  9
$SNAPUNIT
 10
1
 20
1
  9
$SNAPBASE
 10
0
 20
0
  9
$SNAPANG
 50
0
  9
$SNAPSTYLE
 70
0
  9
$SNAPISOPAIR
 70
0
  9
$ORTHOMODE
 70
0
  9
$REGENMODE
 70
1
  9
$FILLMODE
 70
1
  9
$QTEXTMODE
 70
0
  9
$MIRRTEXT
 70
1
  9
$LTSCALE
 40
1
  9
$OSMODE
 70
0
  9
$ATTMODE
 70
1
  9
$TEXTSIZE
 40
0.2
  9
$TRACEWID
 40
0.05
  9
$TEXTSTYLE
  7
Standard
  9
$CLAYER
  8
0
  9
$CELTYPE
  6
ByLayer
  9
$CECOLOR
 62
256
  9
$CELTSCALE
 40
1
  9
$DISPSILH
 70
0
  9
$DIMSCALE
 40
1
  9
$DIMASZ
 40
0.18
  9
$DIMEXO
 40
0.0625
  9
$DIMDLI
 40
0.38
  9
$DIMRND
 40
0
  9
$DIMDLE
 40
0
  9
$DIMEXE
 40
0.18
  9
$DIMTP
 40
0
  9
$DIMTM
 40
0
  9
$DIMTXT
 40
0.18
  9
$DIMCEN
 40
0.09
  9
$DIMTSZ
 40
0
  9
$DIMTOL
 70
0
  9
$DIMLIM
 70
0
  9
$DIMTIH
 70
1
  9
$DIMTOH
 70
1
  9
$DIMSE1
 70
0
  9
$DIMSE2
 70
0
  9
$DIMTAD
 70
0
  9
$DIMZIN
 70
0
  9
$DIMBLK
  1

  9
$DIMASO
 70
1
  9
$DIMSHO
 70
1
  9
$DIMPOST
  1

  9
$DIMAPOST
  1

  9
$DIMALT
 70
0
  9
$DIMALTD
 70
2
  9
$DIMALTF
 40
0.03937007874015748
  9
$DIMLFAC
 40
1
  9
$DIMTOFL
 70
0
  9
$DIMTVP
 40
0
  9
$DIMTIX
 70
0
  9
$DIMSOXD
 70
0
  9
$DIMSAH
 70
0
  9
$DIMBLK1
  1

  9
$DIMBLK2
  1

  9
$DIMSTYLE
  2
Standard
  9
$DIMCLRD
 70
0
  9
$DIMCLRE
 70
0
  9
$DIMCLRT
 70
0
  9
$DIMTFAC
 40
1
  9
$DIMGAP
 40
0.09
  9
$DIMJUST
 70
0
  9
$DIMSD1
 70
0
  9
$DIMSD2
 70
0
  9
$DIMTOLJ
 70
1
  9
$DIMTZIN
 70
0
  9
$DIMALTZ
 70
0
  9
$DIMALTTZ
 70
0
  9
$DIMUPT
 70
0
  9
$DIMDEC
 70
4
  9
$DIMTDEC
 70
4
  9
$DIMALTU
 70
2
  9
$DIMALTTD
 70
0
  9
$DIMTXSTY
  7
Standard
  9
$DIMAUNIT
 70
0
  9
$DIMADEC
 70
0
  9
$DIMALTRND
 40
0
  9
$DIMAZIN
 70
0
  9
$DIMDSEP
 70
46
  9
$DIMATFIT
 70
0
  9
$DIMFRAC
 70
0
  9
$DIMLDRBLK
  1

  9
$DIMLUNIT
 70
2
  9
$DIMLWD
 70
-2
  9
$DIMLWE
 70
-2
  9
$LUNITS
 70
2
  9
$LUPREC
 70
4
  9
$SKETCHINC
 40
0.1
  9
$FILLETRAD
 40
0
  9
$AUNITS
 70
0
  9
$AUPREC
 70
0
  9
$MENU
  1
.
  9
$ELEVATION
 40
0
  9
$PELEVATION
 40
0
  9
$THICKNESS
 40
0
  9
$LIMCHECK
 70
0
  9
$CHAMFERA
 40
0.5
  9
$CHAMFERB
 40
0.5
  9
$CHAMFERC
 40
0
  9
$CHAMFERD
 40
0
  9
$SKPOLY
 70
0
  9
$TDCREATE
 40
2461028.0494966088
  9
$TDUCREATE
 40
2461027.7161632753
  9
$TDUPDATE
 40
2461028.0494966088
  9
$TDUUPDATE
 40
2461027.7161632753
  9
$TDINDWG
 40
0
  9
$TDUSRTIMER
 40
1.1574074074074074E-08
  9
$USRTIMER
 70
1
  9
$ANGBASE
 50
0
  9
$ANGDIR
 70
1
  9
$PDMODE
 70
0
  9
$PDSIZE
 40
0
  9
$PLINEWID
 40
0
  9
$SPLFRAME
 70
0
  9
$SPLINETYPE
 70
6
  9
$SPLINESEGS
 70
8
  9
$HANDSEED
  5
17A
  9
$SURFTAB1
 70
6
  9
$SURFTAB2
 70
6
  9
$SURFTYPE
 70
6
  9
$SURFU
 70
6
  9
$SURFV
 70
6
  9
$UCSORG
 10
0
 20
0
 30
0
  9
$UCSXDIR
 10
1
 20
0
 30
0
  9
$UCSYDIR
 10
0
 20
1
 30
0
  9
$UCSORTHOREF
  2

  9
$UCSORTHOVIEW
 70
0
  9
$UCSORGTOP
 10
0
 20
0
 30
0
  9
$UCSORGBOTTOM
 10
0
 20
0
 30
0
  9
$UCSORGLEFT
 10
0
 20
0
 30
0
  9
$UCSORGRIGHT
 10
0
 20
0
 30
0
  9
$UCSORGFRONT
 10
0
 20
0
 30
0
  9
$UCSORGBACK
 10
0
 20
0
 30
0
  9
$PUCSORG
 10
0
 20
0
 30
0
  9
$PUCSXDIR
 10
1
 20
0
 30
0
  9
$PUCSYDIR
 10
0
 20
1
 30
0
  9
$PUCSORTHOREF
  2

  9
$PUCSORTHOVIEW
 70
0
  9
$PUCSORGTOP
 10
0
 20
0
 30
0
  9
$PUCSORGBOTTOM
 10
0
 20
0
 30
0
  9
$PUCSORGLEFT
 10
0
 20
0
 30
0
  9
$PUCSORGRIGHT
 10
0
 20
0
 30
0
  9
$PUCSORGFRONT
 10
0
 20
0
 30
0
  9
$PUCSORGBACK
 10
0
 20
0
 30
0
  9
$USERI1
 70
0
  9
$USERI2
 70
0
  9
$USERI3
 70
0
  9
$USERI4
 70
0
  9
$USERI5
 70
0
  9
$USERR1
 40
0
  9
$USERR2
 40
0
  9
$USERR3
 40
0
  9
$USERR4
 40
0
  9
$USERR5
 40
0
  9
$WORLDVIEW
 70
1
  9
$SHADEDGE
 70
3
  9
$SHADEDIF
 70
70
  9
$TILEMODE
 70
1
  9
$MAXACTVP
 70
48
  9
$PINSBASE
 10
0
 20
0
 30
0
  9
$PLIMCHECK
 70
0
  9
$PEXTMIN
 10
1E+20
 20
1E+20
 30
1E+20
  9
$PEXTMAX
 10
-1E+20
 20
-1E+20
 30
-1E+20
  9
$PLIMMAX
 10
0
 20
0
  9
$PLIMMIN
 10
0
 20
0
  9
$UNITMODE
 70
0
  9
$VISRETAIN
 70
1
  9
$PLINEGEN
 70
1
  9
$PSLTSCALE
 70
1
  9
$TREEDEPTH
 70
3020
  9
$CMLSTYLE
  2
STANDARD
  9
$CMLJUST
 70
0
  9
$CMLSCALE
 40
1
  9
$PROXYGRAPHICS
 70
1
  9
$MEASUREMENT
 70
1
  9
$CELWEIGHT
370
-1
  9
$ENDCAPS
280
0
  9
$JOINSTYLE
280
0
  9
$LWDISPLAY
290
1
  9
$INSUNITS
 70
4
  9
$HYPERLINKBASE
  1

  9
$XEDIT
290
1
  9
$CEPSNTYPE
380
0
  9
$PSTYLEMODE
290
0
  9
$FINGERPRINTGUID
  2

  9
$VERSIONGUID
  2

  9
$EXTNAMES
290
1
  9
$PSVPSCALE
 40
0
  9
$CSHADOW
280
0
  9
$SHADOWPLANELOCATION
 40
0
  0
ENDSEC
  0
SECTION
  2
CLASSES
  0
CLASS
  1
RASTERVARIABLES
  2
AcDbRasterVariables
  3
ISM
 90
0
280
0
281
0
  0
CLASS
  1
IMAGEDEF
  2
AcDbRasterImageDef
  3
ISM
 90
0
280
0
281
0
  0
CLASS
  1
IMAGEDEF_REACTOR
  2
AcDbRasterImageDefReactor
  3
ISM
 90
1
280
0
281
0
  0
CLASS
  1
IMAGE
  2
AcDbRasterImage
  3
ISM
 90
127
280
0
281
1
  0
CLASS
  1
ACAD_EVALUATION_GRAPH
  2
AcDbEvalGraph
  3
ObjectDBX Classes
 90
1153
280
0
281
0
  0
CLASS
  1
BLOCKPOINTPARAMETER
  2
AcDbBlockPointParameter
  3
ObjectDBX Classes
 90
1153
280
0
281
0
  0
CLASS
  1
BLOCKBASEPOINTPARAMETER
  2
AcDbBlockBasepointParameter
  3
ObjectDBX Classes
 90
1153
280
0
281
0
  0
CLASS
  1
BLOCKLOOKUPPARAMETER
  2
AcDbBlockLookupParameter
  3
ObjectDBX Classes
 90
1153
280
0
281
0
  0
CLASS
  1
BLOCKVISIBILITYPARAMETER
  2
AcDbBlockVisibilityParameter
  3
ObjectDBX Classes
 90
1153
280
0
281
0
  0
CLASS
  1
BLOCKPROPERTIESTABLE
  2
AcDbBlockPropertiesTable
  3
ObjectDBX Classes
 90
1153
280
0
281
0
  0
CLASS
  1
BLOCKPOLARPARAMETER
  2
AcDbBlockPolarParameter
  3
ObjectDBX Classes
 90
1153
280
0
281
0
  0
CLASS
  1
BLOCKROTATIONPARAMETER
  2
AcDbBlockRotationParameter
  3
ObjectDBX Classes
 90
1153
280
0
281
0
  0
CLASS
  1
BLOCKLINEARPARAMETER
  2
AcDbBlockLinearParameter
  3
ObjectDBX Classes
 90
1153
280
0
281
0
  0
CLASS
  1
BLOCKXYPARAMETER
  2
AcDbBlockXYParameter
  3
ObjectDBX Classes
 90
1153
280
0
281
0
  0
CLASS
  1
BLOCKFLIPPARAMETER
  2
AcDbBlockFlipParameter
  3
ObjectDBX Classes
 90
1153
280
0
281
0
  0
CLASS
  1
BLOCKALIGNMENTPARAMETER
  2
AcDbBlockAlignmentParameter
  3
ObjectDBX Classes
 90
1153
280
0
281
0
  0
CLASS
  1
BLOCKROTATEACTION
  2
AcDbBlockRotateAction
  3
ObjectDBX Classes
 90
1153
280
0
281
0
  0
CLASS
  1
BLOCKSCALEACTION
  2
AcDbBlockScaleAction
  3
ObjectDBX Classes
 90
1153
280
0
281
0
  0
CLASS
  1
BLOCKARRAYACTION
  2
AcDbBlockArrayAction
  3
ObjectDBX Classes
 90
1153
280
0
281
0
  0
CLASS
  1
BLOCKFLIPACTION
  2
AcDbBlockFlipAction
  3
ObjectDBX Classes
 90
1153
280
0
281
0
  0
CLASS
  1
BLOCKLOOKUPACTION
  2
AcDbBlockLookupAction
  3
ObjectDBX Classes
 90
1153
280
0
281
0
  0
CLASS
  1
BLOCKMOVEACTION
  2
AcDbBlockMoveAction
  3
ObjectDBX Classes
 90
1153
280
0
281
0
  0
CLASS
  1
BLOCKPOLARSTRETCHACTION
  2
AcDbBlockPolarStretchAction
  3
ObjectDBX Classes
 90
1153
280
0
281
0
  0
CLASS
  1
BLOCKSTRETCHACTION
  2
AcDbBlockStretchAction
  3
ObjectDBX Classes
 90
1153
280
0
281
0
  0
CLASS
  1
BLOCKALIGNMENTGRIP
  2
AcDbBlockAlignmentGrip
  3
ObjectDBX Classes
 90
1153
280
0
281
0
  0
CLASS
  1
BLOCKFLIPGRIP
  2
AcDbBlockFlipGrip
  3
ObjectDBX Classes
 90
1153
280
0
281
0
  0
CLASS
  1
ACDB_BLOCKREPRESENTATION_DATA
  2
AcDbBlockRepresentationData
  3
ObjectDBX Classes
 90
1153
280
0
281
0
  0
CLASS
  1
ACDB_DYNAMICBLOCKPURGEPREVENTER_VERSION
  2
AcDbDynamicBlockPurgePreventer
  3
ObjectDBX Classes
 90
1153
280
0
281
0
  0
CLASS
  1
BLOCKLINEARGRIP
  2
AcDbBlockLinearGrip
  3
ObjectDBX Classes
 90
1153
280
0
281
0
  0
CLASS
  1
BLOCKLOOKUPGRIP
  2
AcDbBlockLookupGrip
  3
ObjectDBX Classes
 90
1153
280
0
281
0
  0
CLASS
  1
BLOCKPOLARGRIP
  2
AcDbBlockPolarGrip
  3
ObjectDBX Classes
 90
1153
280
0
281
0
  0
CLASS
  1
BLOCKPROPERTIESTABLEGRIP
  2
AcDbBlockPropertiesTableGrip
  3
ObjectDBX Classes
 90
1153
280
0
281
0
  0
CLASS
  1
BLOCKROTATIONGRIP
  2
AcDbBlockRotationGrip
  3
ObjectDBX Classes
 90
1153
280
0
281
0
  0
CLASS
  1
BLOCKVISIBILITYGRIP
  2
AcDbBlockVisibilityGrip
  3
ObjectDBX Classes
 90
1153
280
0
281
0
  0
CLASS
  1
BLOCKXYGRIP
  2
AcDbBlockXYGrip
  3
ObjectDBX Classes
 90
1153
280
0
281
0
  0
CLASS
  1
BLOCKGRIPLOCATIONCOMPONENT
  2
AcDbBlockGripExpr
  3
ObjectDBX Classes
 90
1153
280
0
281
0
  0
CLASS
  1
ACDB_DYNAMICBLOCKPROXYNODE
  2
AcDbDynamicBlockProxyNode
  3
ObjectDBX Classes
 90
1153
280
0
281
0
  0
CLASS
  1
BLOCKLINEARCONSTRAINTPARAMETER
  2
AcDbBlockLinearConstraintParameter
  3
ObjectDBX Classes
 90
1153
280
0
281
0
  0
CLASS
  1
BLOCKHORIZONTALCONSTRAINTPARAMETER
  2
AcDbBlockHorizontalConstraintParameter
  3
ObjectDBX Classes
 90
1153
280
0
281
0
  0
CLASS
  1
BLOCKVERTICALCONSTRAINTPARAMETER
  2
AcDbBlockVerticalConstraintParameter
  3
ObjectDBX Classes
 90
1153
280
0
281
0
  0
CLASS
  1
BLOCKALIGNEDCONSTRAINTPARAMETER
  2
AcDbBlockAlignedConstraintParameter
  3
ObjectDBX Classes
 90
1153
280
0
281
0
  0
CLASS
  1
BLOCKANGULARCONSTRAINTPARAMETER
  2
AcDbBlockAngularConstraintParameter
  3
ObjectDBX Classes
 90
1153
280
0
281
0
  0
CLASS
  1
BLOCKDIAMETRICCONSTRAINTPARAMETER
  2
AcDbBlockDiametricConstraintParameter
  3
ObjectDBX Classes
 90
1153
280
0
281
0
  0
CLASS
  1
BLOCKRADIALCONSTRAINTPARAMETER
  2
AcDbBlockRadialConstraintParameter
  3
ObjectDBX Classes
 90
1153
280
0
281
0
  0
ENDSEC
  0
SECTION
  2
TABLES
  0
TABLE
  2
VPORT
  5
8
330
0
100
AcDbSymbolTable
 70
1
  0
VPORT
  5
155
330
8
100
AcDbSymbolTableRecord
100
AcDbViewportTableRecord
  2
*Active
 70
64
 10
0
 20
0
 11
1
 21
1
 12
295.00000009999997
 22
100.00000010000001
 13
0
 23
0
 14
1
 24
1
 15
0
 25
0
 16
0
 26
0
 36
1
 17
0
 27
0
 37
0
 40
200.00000000000003
 41
2.9499999999999997
 42
50
 43
0
 44
0
 50
0
 51
0
 71
0
 72
20000
 73
20000
 74
1
 75
0
 76
0
 77
0
 78
0
281
0
 65
1
110
0
120
0
130
0
111
1
121
0
131
0
112
0
122
1
132
0
 79
0
146
0
  0
ENDTAB
  0
TABLE
  2
LTYPE
  5
5
100
AcDbSymbolTable
 70
3
  0
LTYPE
  5
16
330
5
100
AcDbSymbolTableRecord
100
AcDbLinetypeTableRecord
  2
Continuous
  3
Solid line
 70
64
 72
65
 73
0
 40
0
  0
LTYPE
  5
14
330
5
100
AcDbSymbolTableRecord
100
AcDbLinetypeTableRecord
  2
ByBlock
  3

 70
64
 72
65
 73
0
 40
0
  0
LTYPE
  5
15
330
5
100
AcDbSymbolTableRecord
100
AcDbLinetypeTableRecord
  2
ByLayer
  3

 70
64
 72
65
 73
0
 40
0
  0
ENDTAB
  0
TABLE
  2
LAYER
  5
2
100
AcDbSymbolTable
 70
3
  0
LAYER
  5
10
330
2
100
AcDbSymbolTableRecord
100
AcDbLayerTableRecord
 70
64
  2
0
 62
7
  6
Continuous
370
-3
390
F
  0
LAYER
  5
27
330
2
100
AcDbSymbolTableRecord
100
AcDbLayerTableRecord
 70
64
  2
sheet
 62
18
  6
Continuous
370
-3
390
F
  0
LAYER
  5
28
330
2
100
AcDbSymbolTableRecord
100
AcDbLayerTableRecord
 70
64
  2
DEFPOINTS
 62
7
  6
Continuous
290
0
370
-3
390
F
  0
ENDTAB
  0
TABLE
  2
STYLE
  5
3
100
AcDbSymbolTable
 70
1
  0
STYLE
  5
11
330
3
100
AcDbSymbolTableRecord
100
AcDbTextStyleTableRecord
  2
Standard
 70
64
 40
0
 41
1
 50
0
 71
0
 42
0.2
  3
txt.shx
  0
ENDTAB
  0
TABLE
  2
VIEW
  5
6
100
AcDbSymbolTable
 70
0
  0
ENDTAB
  0
TABLE
  2
UCS
  5
7
100
AcDbSymbolTable
 70
0
  0
ENDTAB
  0
TABLE
  2
APPID
  5
9
330
0
100
AcDbSymbolTable
 70
2
  0
APPID
  5
12
330
0
100
AcDbSymbolTableRecord
100
AcDbRegAppTableRecord
  2
ACAD
 70
64
  0
APPID
  5
178
330
0
100
AcDbSymbolTableRecord
100
AcDbRegAppTableRecord
  2
ACAD_MLEADERVER
 70
64
  0
ENDTAB
  0
TABLE
  2
DIMSTYLE
  5
A
330
0
100
AcDbSymbolTable
 70
1
100
AcDbDimStyleTable
 71
0
  0
DIMSTYLE
105
154
330
A
100
AcDbSymbolTableRecord
100
AcDbDimStyleTableRecord
  2
Standard
 70
64
  3

  4

 40
1
 41
0.18
 42
0.0625
 43
0.38
 44
0.18
 45
0
 46
0
 47
0
 48
0
140
0.18
141
0.09
142
0
143
1
144
1
145
0
146
1
147
0.09
148
0
 71
0
 72
0
 73
1
 74
1
 75
0
 76
0
 77
0
 78
0
 79
0
170
0
171
2
172
0
173
0
174
0
175
0
179
0
271
4
272
4
273
2
274
0
275
0
276
0
277
2
278
46
279
0
280
0
281
0
282
0
283
1
284
0
285
0
286
0
288
0
289
0
340
11
371
-2
372
-2
  0
ENDTAB
  0
TABLE
  2
BLOCK_RECORD
  5
1
330
0
100
AcDbSymbolTable
 70
3
  0
BLOCK_RECORD
  5
1F
330
1
100
AcDbSymbolTableRecord
100
AcDbBlockTableRecord
  2
*Model_Space
340
22
  0
BLOCK_RECORD
  5
151
330
1
100
AcDbSymbolTableRecord
100
AcDbBlockTableRecord
  2
*Paper_Space
340
1E
  0
ENDTAB
  0
ENDSEC
  0
SECTION
  2
BLOCKS
  0
BLOCK
  5
20
330
1F
100
AcDbEntity
  8
0
100
AcDbBlockBegin
  2
*Model_Space
 70
64
 10
0
 20
0
 30
0
  3
*Model_Space
  0
ENDBLK
  5
21
330
1F
100
AcDbEntity
  8
0
100
AcDbBlockEnd
  0
BLOCK
  5
152
330
151
100
AcDbEntity
  8
0
 67
1
100
AcDbBlockBegin
  2
*Paper_Space
 70
64
 10
0
 20
0
 30
0
  3
*Paper_Space
  0
ENDBLK
  5
153
330
151
100
AcDbEntity
  8
0
100
AcDbBlockEnd
  0
ENDSEC
  0
SECTION
  2
ENTITIES
  0
LINE
  5
29
330
1F
100
AcDbEntity
  8
sheet
 62
18
100
AcDbLine
 10
590.0000001
 20
1E-07
 30
0
 11
590.0000001
 21
200.0000001
 31
0
  0
LINE
  5
2A
330
1F
100
AcDbEntity
  8
sheet
 62
18
100
AcDbLine
 10
590.0000001
 20
200.0000001
 30
0
 11
9.9999965641472954E-08
 21
200.00000010000002
 31
0
  0
LINE
  5
2B
330
1F
100
AcDbEntity
  8
sheet
 62
18
100
AcDbLine
 10
9.9999965641472954E-08
 20
200.00000010000002
 30
0
 11
9.9999965641472954E-08
 21
1.0000003612708057E-07
 31
0
  0
LINE
  5
2C
330
1F
100
AcDbEntity
  8
sheet
 62
18
100
AcDbLine
 10
9.9999965641472954E-08
 20
1.0000003612708057E-07
 30
0
 11
590.0000001
 21
1E-07
 31
0
  0
ARC
  5
2D
330
1F
100
AcDbEntity
  8
0
 62
7
100
AcDbCircle
 10
21.000000399004534
 20
136.96261402908104
 30
0
 40
16.0000000000348
100
AcDbArc
 50
122.34744349950394
 51
179.99999999992622
  0
LINE
  5
2E
330
1F
100
AcDbEntity
  8
0
 62
7
100
AcDbLine
 10
5.0000003989697461
 20
136.96261402910164
 30
0
 11
5.0000003989697461
 21
64.044805826045646
 31
0
  0
ARC
  5
2F
330
1F
100
AcDbEntity
  8
0
 62
7
100
AcDbCircle
 10
7.0000003988345725
 20
64.044805825912576
 30
0
 40
1.9999999998648
100
AcDbArc
 50
179.99999999618782
 51
270.00000000387246
  0
LINE
  5
30
330
1F
100
AcDbEntity
  8
0
 62
7
100
AcDbLine
 10
7.0000003989697461
 20
62.044805826047742
 30
0
 11
13.000000398968837
 21
62.044805826045639
 31
0
  0
ARC
  5
31
330
1F
100
AcDbEntity
  8
0
 62
7
100
AcDbCircle
 10
13.000000399147439
 20
64.04480582586703
 30
0
 40
1.99999999982139
100
AcDbArc
 50
269.99999999488341
 51
5.116571038746E-09
  0
LINE
  5
32
330
1F
100
AcDbEntity
  8
0
 62
7
100
AcDbLine
 10
15.000000398968837
 20
64.044805826045632
 30
0
 11
15.000000398969746
 21
136.96261402910164
 31
0
  0
ARC
  5
33
330
1F
100
AcDbEntity
  8
0
 62
7
100
AcDbCircle
 10
21.000000398974862
 20
136.96261402909906
 30
0
 40
6.00000000000511
100
AcDbArc
 50
122.34744349945748
 51
179.99999999997533
  0
LINE
  5
34
330
1F
100
AcDbEntity
  8
0
 62
7
100
AcDbLine
 10
17.789687911864689
 20
142.03152848242789
 30
0
 11
69.980013169780818
 21
175.08540114577485
 31
0
  0
ARC
  5
35
330
1F
100
AcDbEntity
  8
0
 62
7
100
AcDbCircle
 10
73.190325656732739
 20
170.01648669298297
 30
0
 40
5.99999999946686
100
AcDbArc
 50
89.999999998501835
 51
122.34744350092423
  0
LINE
  5
36
330
1F
100
AcDbEntity
  8
0
 62
7
100
AcDbLine
 10
73.190325656889627
 20
176.01648669244975
 30
0
 11
238.50000039896287
 21
176.01648669242067
 31
0
  0
ARC
  5
37
330
1F
100
AcDbEntity
  8
0
 62
7
100
AcDbCircle
 10
238.50000039880786
 20
178.01648669257534
 30
0
 40
2.00000000015468
100
AcDbArc
 50
270.00000000444078
 51
359.999999995569
  0
LINE
  5
38
330
1F
100
AcDbEntity
  8
0
 62
7
100
AcDbLine
 10
240.50000039896287
 20
178.01648669242067
 30
0
 11
240.50000039896287
 21
184.01648669242385
 31
0
  0
ARC
  5
39
330
1F
100
AcDbEntity
  8
0
 62
7
100
AcDbCircle
 10
238.50000039882383
 20
184.01648669228476
 30
0
 40
2.00000000013909
100
AcDbArc
 50
3.9848024601600863E-09
 51
89.999999996016825
  0
LINE
  5
3A
330
1F
100
AcDbEntity
  8
0
 62
7
100
AcDbLine
 10
238.50000039896287
 20
186.01648669242385
 30
0
 11
73.190325656889627
 21
186.01648669244975
 31
0
  0
ARC
  5
3B
330
1F
100
AcDbEntity
  8
0
 62
7
100
AcDbCircle
 10
73.1903256569392
 20
170.01648669226714
 30
0
 40
16.0000000001826
100
AcDbArc
 50
90.0000000001775
 51
122.34744349924341
  0
LINE
  5
3C
330
1F
100
AcDbEntity
  8
0
 62
7
100
AcDbLine
 10
64.62949235793883
 20
183.53359190131874
 30
0
 11
12.439167100021791
 21
150.47971923796885
 31
0
  0
ARC
  5
3D
330
1F
100
AcDbEntity
  8
0
 62
7
100
AcDbCircle
 10
229.91999181589284
 20
181.01648669242186
 30
0
 40
2.99999999998568
100
AcDbArc
 50
89.999836075456656
 51
270.00016392454336
  0
LINE
  5
3E
330
1F
100
AcDbEntity
  8
0
 62
7
100
AcDbLine
 10
229.92000039896186
 20
178.01648669242385
 30
0
 11
233.08000039895882
 21
178.01648669242186
 31
0
  0
ARC
  5
3F
330
1F
100
AcDbEntity
  8
0
 62
7
100
AcDbCircle
 10
233.08001470407373
 20
181.01648669242186
 30
0
 40
2.99999999996589
100
AcDbArc
 50
269.99972679242995
 51
90.000273207570061
  0
LINE
  5
40
330
1F
100
AcDbEntity
  8
0
 62
7
100
AcDbLine
 10
233.08000039895882
 20
184.01648669242186
 30
0
 11
229.92000039896186
 21
184.01648669241976
 31
0
  0
ARC
  5
41
330
1F
100
AcDbEntity
  8
0
 62
7
100
AcDbCircle
 10
10.000000398963834
 20
70.124799870349648
 30
0
 40
3.00000000000591
100
AcDbArc
 50
0.00011374537852480533
 51
179.99988625462123
  0
LINE
  5
42
330
1F
100
AcDbEntity
  8
0
 62
7
100
AcDbLine
 10
7.0000003989638344
 20
70.124805826043755
 30
0
 11
6.983765859962773
 21
66.966470395084869
 31
0
  0
ARC
  5
43
330
1F
100
AcDbEntity
  8
0
 62
7
100
AcDbCircle
 10
9.983765859962773
 20
66.966480577540153
 30
0
 40
3.00000000001728
100
AcDbArc
 50
180.00019447057096
 51
359.99980552942878
  0
LINE
  5
44
330
1F
100
AcDbEntity
  8
0
 62
7
100
AcDbLine
 10
12.983765859962773
 20
66.966470395084855
 30
0
 11
13.000000398963834
 21
70.12480582604374
 31
0
  0
LINE
  5
45
330
1F
100
AcDbEntity
  8
0
 62
7
100
AcDbLine
 10
577.56083310002191
 20
150.47971923796882
 30
0
 11
525.37050784216251
 21
183.53359190140981
 31
0
  0
ARC
  5
46
330
1F
100
AcDbEntity
  8
0
 62
7
100
AcDbCircle
 10
516.8096745431385
 20
170.01648669237312
 30
0
 40
16.0000000001826
100
AcDbArc
 50
57.652556500656459
 51
89.999999999722348
  0
LINE
  5
47
330
1F
100
AcDbEntity
  8
0
 62
7
100
AcDbLine
 10
516.809674543216
 20
186.01648669255573
 30
0
 11
351.49999980114285
 21
186.01648669281832
 31
0
  0
ARC
  5
48
330
1F
100
AcDbEntity
  8
0
 62
7
100
AcDbCircle
 10
351.49999980127836
 20
184.01648669267922
 30
0
 40
2.00000000013909
100
AcDbArc
 50
90.0000000038822
 51
179.99999999591506
  0
LINE
  5
49
330
1F
100
AcDbEntity
  8
0
 62
7
100
AcDbLine
 10
349.49999980113938
 20
184.01648669282181
 30
0
 11
349.49999980112892
 21
178.0164866928186
 31
0
  0
ARC
  5
4A
330
1F
100
AcDbEntity
  8
0
 62
7
100
AcDbCircle
 10
351.49999980128393
 20
178.01648669296981
 30
0
 40
2.00000000015468
100
AcDbArc
 50
180.00000000433167
 51
269.99999999545992
  0
LINE
  5
4B
330
1F
100
AcDbEntity
  8
0
 62
7
100
AcDbLine
 10
351.49999980112545
 20
176.01648669281511
 30
0
 11
516.80967454319853
 21
176.01648669255573
 31
0
  0
ARC
  5
4C
330
1F
100
AcDbEntity
  8
0
 62
7
100
AcDbCircle
 10
516.80967454334507
 20
170.01648669308892
 30
0
 40
5.99999999946686
100
AcDbArc
 50
57.652556498975784
 51
90.000000001399385
  0
LINE
  5
4D
330
1F
100
AcDbEntity
  8
0
 62
7
100
AcDbLine
 10
520.01998703030586
 20
175.08540114587524
 30
0
 11
572.21031228816423
 21
142.03152848243718
 31
0
  0
ARC
  5
4E
330
1F
100
AcDbEntity
  8
0
 62
7
100
AcDbCircle
 10
568.99999980104519
 20
136.96261402911395
 30
0
 40
6.00000000000511
100
AcDbArc
 50
359.99999999992485
 51
57.652556500442387
  0
LINE
  5
4F
330
1F
100
AcDbEntity
  8
0
 62
7
100
AcDbLine
 10
574.99999980105031
 20
136.96261402910608
 30
0
 11
574.999999800924
 21
64.04480582605008
 31
0
  0
ARC
  5
50
330
1F
100
AcDbEntity
  8
0
 62
7
100
AcDbCircle
 10
576.9999998007454
 20
64.044805825868
 30
0
 40
1.99999999982139
100
AcDbArc
 50
179.99999999478368
 51
270.00000000501558
  0
LINE
  5
51
330
1F
100
AcDbEntity
  8
0
 62
7
100
AcDbLine
 10
576.99999980092048
 20
62.0448058260466
 30
0
 11
582.99999980091957
 21
62.044805826038228
 31
0
  0
ARC
  5
52
330
1F
100
AcDbEntity
  8
0
 62
7
100
AcDbCircle
 10
582.99999980105827
 20
64.044805825903026
 30
0
 40
1.9999999998648
100
AcDbArc
 50
269.99999999602659
 51
3.7132594242034456E-09
  0
LINE
  5
53
330
1F
100
AcDbEntity
  8
0
 62
7
100
AcDbLine
 10
584.99999980092309
 20
64.044805826032643
 30
0
 11
584.99999980105031
 21
136.96261402908863
 31
0
  0
ARC
  5
54
330
1F
100
AcDbEntity
  8
0
 62
7
100
AcDbCircle
 10
568.99999980101552
 20
136.96261402909596
 30
0
 40
16.0000000000348
100
AcDbArc
 50
359.99999999997374
 51
57.652556500395889
  0
LINE
  5
55
330
1F
100
AcDbEntity
  8
0
 62
7
100
AcDbLine
 10
360.07999980114039
 20
184.01648669279922
 30
0
 11
356.91999980114338
 21
184.01648669280686
 31
0
  0
ARC
  5
56
330
1F
100
AcDbEntity
  8
0
 62
7
100
AcDbCircle
 10
356.91998549602317
 20
181.01648669280686
 30
0
 40
2.99999999996589
100
AcDbArc
 50
89.999726792328985
 51
270.00027320747125
  0
LINE
  5
57
330
1F
100
AcDbEntity
  8
0
 62
7
100
AcDbLine
 10
356.91999980113292
 20
178.01648669280686
 30
0
 11
360.07999980112993
 21
178.01648669280331
 31
0
  0
ARC
  5
58
330
1F
100
AcDbEntity
  8
0
 62
7
100
AcDbCircle
 10
360.08000838420412
 20
181.01648669280132
 30
0
 40
2.99999999998568
100
AcDbArc
 50
269.99983607535785
 51
90.000163924442376
  0
LINE
  5
59
330
1F
100
AcDbEntity
  8
0
 62
7
100
AcDbLine
 10
576.99999980093958
 20
70.1248058260447
 30
0
 11
577.01623433993518
 21
66.966470395085778
 31
0
  0
ARC
  5
5A
330
1F
100
AcDbEntity
  8
0
 62
7
100
AcDbCircle
 10
580.01623433993518
 20
66.966480577535847
 30
0
 40
3.00000000001728
100
AcDbArc
 50
180.00019447047134
 51
359.99980552932863
  0
LINE
  5
5B
330
1F
100
AcDbEntity
  8
0
 62
7
100
AcDbLine
 10
583.01623433993518
 20
66.9664703950753
 30
0
 11
582.99999980093958
 21
70.124805826034233
 31
0
  0
ARC
  5
5C
330
1F
100
AcDbEntity
  8
0
 62
7
100
AcDbCircle
 10
579.99999980093958
 20
70.124799870345356
 30
0
 40
3.00000000000591
100
AcDbArc
 50
0.00011374527891831419
 51
179.99988625452107
  0
LINE
  5
5D
330
1F
100
AcDbEntity
  8
0
 62
7
100
AcDbLine
 10
323.18595654243609
 20
183.76723524698832
 30
0
 11
185.83316389956587
 21
159.54823202839515
 31
0
  0
ARC
  5
5E
330
1F
100
AcDbEntity
  8
0
 62
7
100
AcDbCircle
 10
188.43788656457008
 20
144.77611573321084
 30
0
 40
15.0000000000012
100
AcDbArc
 50
100.00000000000016
 51
189.9999999999954
  0
LINE
  5
5F
330
1F
100
AcDbEntity
  8
0
 62
7
100
AcDbLine
 10
173.66577026938569
 20
142.17139306820789
 30
0
 11
184.80157429259015
 21
79.017110164588843
 31
0
  0
ARC
  5
60
330
1F
100
AcDbEntity
  8
0
 62
7
100
AcDbCircle
 10
199.57369058775811
 20
81.621832829569
 30
0
 40
14.9999999999813
100
AcDbArc
 50
189.99999999992053
 51
280.00000000007265
  0
LINE
  5
61
330
1F
100
AcDbEntity
  8
0
 62
7
100
AcDbLine
 10
202.17841325277755
 20
66.849716534407634
 30
0
 11
270.622552087126
 21
78.9182648822593
 31
0
  0
ARC
  5
62
330
1F
100
AcDbEntity
  8
0
 62
7
100
AcDbCircle
 10
270.27525573181936
 20
80.887880388264719
 30
0
 40
1.99999999997654
100
AcDbArc
 50
279.99999999932646
 51
10.000000000704221
  0
LINE
  5
63
330
1F
100
AcDbEntity
  8
0
 62
7
100
AcDbLine
 10
272.24487123781637
 20
81.235176743618709
 30
0
 11
271.20298217181477
 21
87.144023261691942
 31
0
  0
ARC
  5
64
330
1F
100
AcDbEntity
  8
0
 62
7
100
AcDbCircle
 10
269.23336666577956
 20
86.796726906342613
 30
0
 40
2.00000000001336
100
AcDbArc
 50
10.000000000382691
 51
99.999999999618311
  0
LINE
  5
65
330
1F
100
AcDbEntity
  8
0
 62
7
100
AcDbLine
 10
268.88607031045649
 20
88.766342412382542
 30
0
 11
200.44193147610787
 21
76.697794064531735
 31
0
  0
ARC
  5
66
330
1F
100
AcDbEntity
  8
0
 62
7
100
AcDbCircle
 10
199.57369058779028
 20
81.621832829617034
 30
0
 40
5.00000000002094
100
AcDbArc
 50
190.00000000023985
 51
279.99999999975915
  0
LINE
  5
67
330
1F
100
AcDbEntity
  8
0
 62
7
100
AcDbLine
 10
194.6496518227122
 20
80.753591941258122
 30
0
 11
183.51384779950877
 21
143.90787484487737
 31
0
  0
ARC
  5
68
330
1F
100
AcDbEntity
  8
0
 62
7
100
AcDbCircle
 10
188.43788656451198
 20
144.77611573325208
 30
0
 40
4.99999999994956
100
AcDbArc
 50
99.999999999427018
 51
190.00000000056718
  0
LINE
  5
69
330
1F
100
AcDbEntity
  8
0
 62
7
100
AcDbLine
 10
187.56964567623533
 20
149.70015449827218
 30
0
 11
324.92243831910554
 21
173.91915771686536
 31
0
  0
ARC
  5
6A
330
1F
100
AcDbEntity
  8
0
 62
7
100
AcDbCircle
 10
324.57514196372659
 20
175.88877322292134
 30
0
 40
2.00000000003892
100
AcDbArc
 50
280.00000000111487
 51
9.9999999988851123
  0
LINE
  5
6B
330
1F
100
AcDbEntity
  8
0
 62
7
100
AcDbLine
 10
326.54475746979608
 20
176.23606957822363
 30
0
 11
325.50286840379437
 21
182.14491609629778
 31
0
  0
ARC
  5
6C
330
1F
100
AcDbEntity
  8
0
 62
7
100
AcDbCircle
 10
323.53325289767145
 20
181.79761974082325
 30
0
 40
2.0000000001214
100
AcDbArc
 50
10.000000003478526
 51
99.999999996521268
  0
ARC
  5
6D
330
1F
100
AcDbEntity
  8
0
 62
7
100
AcDbCircle
 10
263.76666557903684
 20
82.7865201736429
 30
0
 40
2.99999999996589
100
AcDbArc
 50
99.9997191582126
 51
280.00028084178672
  0
LINE
  5
6E
330
1F
100
AcDbEntity
  8
0
 62
7
100
AcDbLine
 10
264.28762459347996
 20
79.832099468073253
 30
0
 11
266.41480933998133
 21
80.2071795318288
 31
0
  0
ARC
  5
6F
330
1F
100
AcDbEntity
  8
0
 62
7
100
AcDbCircle
 10
265.89386870771563
 20
83.161603478670841
 30
0
 40
2.99999999999795
100
AcDbArc
 50
279.99992435218536
 51
100.00007564768418
  0
LINE
  5
70
330
1F
100
AcDbEntity
  8
0
 62
7
100
AcDbLine
 10
265.37292027398627
 20
86.11602604990442
 30
0
 11
263.24573552747773
 21
85.740945986150351
 31
0
  0
ARC
  5
71
330
1F
100
AcDbEntity
  8
0
 62
7
100
AcDbCircle
 10
320.68616631175337
 20
178.24932172377879
 30
0
 40
2.99999999997772
100
AcDbArc
 50
279.99977916895375
 51
100.00022083104663
  0
LINE
  5
72
330
1F
100
AcDbEntity
  8
0
 62
7
100
AcDbLine
 10
320.1652103917292
 20
181.20374297497597
 30
0
 11
318.03802564521988
 21
180.82866291121488
 31
0
  0
ARC
  5
73
330
1F
100
AcDbEntity
  8
0
 62
7
100
AcDbCircle
 10
318.55899185083888
 20
177.87424347364558
 30
0
 40
3.00000000008072
100
AcDbArc
 50
100.00042030184765
 51
279.99957969820787
  0
LINE
  5
74
330
1F
100
AcDbEntity
  8
0
 62
7
100
AcDbLine
 10
319.07991471122432
 20
174.91981639314213
 30
0
 11
321.20709945773081
 21
175.29489645690273
 31
0
  0
LINE
  5
75
330
1F
100
AcDbEntity
  8
0
 62
7
100
AcDbLine
 10
106.15973682427807
 20
152.06081423518864
 30
0
 11
106.54796539192932
 21
150.61192549575438
 31
0
  0
LINE
  5
76
330
1F
100
AcDbEntity
  8
0
 62
7
100
AcDbLine
 10
106.54796539192932
 20
150.61192549575438
 30
0
 11
141.32129513834502
 21
159.92941111941053
 31
0
  0
ARC
  5
77
330
1F
100
AcDbEntity
  8
0
 62
7
100
AcDbCircle
 10
142.87420940892895
 20
154.13385616163694
 30
0
 40
6.00000000002979
100
AcDbArc
 50
15.00000000018427
 51
104.9999999996154
  0
LINE
  5
78
330
1F
100
AcDbEntity
  8
0
 62
7
100
AcDbLine
 10
148.66976436668716
 20
155.68677043227842
 30
0
 11
176.30052961893119
 21
52.567350658170668
 31
0
  0
ARC
  5
79
330
1F
100
AcDbEntity
  8
0
 62
7
100
AcDbCircle
 10
189.82349118700085
 20
56.190817289610514
 30
0
 40
14.0000000000231
100
AcDbArc
 50
194.99999999999395
 51
284.99999999980548
  0
LINE
  5
7A
330
1F
100
AcDbEntity
  8
0
 62
7
100
AcDbLine
 10
193.44695781839619
 20
42.667855721529044
 30
0
 11
284.72694840275619
 21
67.126255483556974
 31
0
  0
ARC
  5
7B
330
1F
100
AcDbEntity
  8
0
 62
7
100
AcDbCircle
 10
281.10348177140571
 20
80.6492170515749
 30
0
 40
13.9999999999496
100
AcDbArc
 50
284.99999999969549
 51
15.000000000104547
  0
LINE
  5
7C
330
1F
100
AcDbEntity
  8
0
 62
7
100
AcDbLine
 10
294.62644333939778
 20
84.272683683021924
 30
0
 11
285.82659580597038
 21
117.11416177686597
 31
0
  0
ARC
  5
7D
330
1F
100
AcDbEntity
  8
0
 62
7
100
AcDbCircle
 10
283.89474415351555
 20
116.59652368688052
 30
0
 40
1.99999999982332
100
AcDbArc
 50
14.999999994837829
 51
105.0000000049417
  0
LINE
  5
7E
330
1F
100
AcDbEntity
  8
0
 62
7
100
AcDbLine
 10
283.37710606318961
 20
118.52837533924334
 30
0
 11
279.51340275803153
 21
117.49309915884
 31
0
  0
ARC
  5
7F
330
1F
100
AcDbEntity
  8
0
 62
7
100
AcDbCircle
 10
280.03104084733712
 20
115.56124750677704
 30
0
 40
1.9999999992696
100
AcDbArc
 50
104.99999997893052
 51
195.0000000208249
  0
LINE
  5
80
330
1F
100
AcDbEntity
  8
0
 62
7
100
AcDbLine
 10
278.0991891956532
 20
115.04360941605903
 30
0
 11
286.89903672908162
 21
82.202131322215251
 31
0
  0
ARC
  5
81
330
1F
100
AcDbEntity
  8
0
 62
7
100
AcDbCircle
 10
281.10348177108239
 20
80.649217051761568
 30
0
 40
6.00000000021388
100
AcDbArc
 50
285.0000000019437
 51
14.999999997856373
  0
LINE
  5
82
330
1F
100
AcDbEntity
  8
0
 62
7
100
AcDbLine
 10
282.65639604194951
 20
74.853662093873126
 30
0
 11
191.37640545758978
 21
50.395262331844243
 31
0
  0
ARC
  5
83
330
1F
100
AcDbEntity
  8
0
 62
7
100
AcDbCircle
 10
189.82349118695566
 20
56.190817289531118
 30
0
 40
5.99999999995889
100
AcDbArc
 50
194.99999999949873
 51
285.00000000029269
  0
LINE
  5
84
330
1F
100
AcDbEntity
  8
0
 62
7
100
AcDbLine
 10
184.02793622924736
 20
54.637903018977333
 30
0
 11
156.39717097700333
 21
157.75732279308511
 31
0
  0
ARC
  5
85
330
1F
100
AcDbEntity
  8
0
 62
7
100
AcDbCircle
 10
142.87420940896254
 20
154.13385616169512
 30
0
 40
13.9999999999823
100
AcDbArc
 50
14.99999999982745
 51
104.99999999997226
  0
LINE
  5
86
330
1F
100
AcDbEntity
  8
0
 62
7
100
AcDbLine
 10
139.25074277753839
 20
167.6568177297267
 30
0
 11
104.47741303112286
 21
158.33933210606963
 31
0
  0
LINE
  5
87
330
1F
100
AcDbEntity
  8
0
 62
7
100
AcDbLine
 10
104.47741303112286
 20
158.33933210606963
 30
0
 11
104.86564159877412
 21
156.89044336663537
 31
0
  0
LINE
  5
88
330
1F
100
AcDbEntity
  8
0
 62
7
100
AcDbLine
 10
104.86564159877412
 20
156.89044336663537
 30
0
 11
109.21230781707874
 21
158.05512906958958
 31
0
  0
ARC
  5
89
330
1F
100
AcDbEntity
  8
0
 62
7
100
AcDbCircle
 10
109.85936962614716
 20
155.64031830775778
 30
0
 40
2.49999999995634
100
AcDbArc
 50
284.99966316699016
 51
105.00033683281013
  0
LINE
  5
8A
330
1F
100
AcDbEntity
  8
0
 62
7
100
AcDbLine
 10
110.50640304258269
 20
153.22549993814286
 30
0
 11
106.15973682427807
 21
152.06081423518864
 31
0
  0
LINE
  5
8B
330
1F
100
AcDbEntity
  8
0
 62
7
100
AcDbLine
 10
280.33850472383909
 20
110.55007339581447
 30
0
 11
280.89755386125694
 21
108.46367361102901
 31
0
  0
ARC
  5
8C
330
1F
100
AcDbEntity
  8
0
 62
7
100
AcDbCircle
 10
283.79532447312914
 20
109.2401563743107
 30
0
 40
3.00000000011732
100
AcDbArc
 50
195.0005067244694
 51
14.999493275370966
  0
LINE
  5
8D
330
1F
100
AcDbEntity
  8
0
 62
7
100
AcDbLine
 10
286.69310881899349
 20
110.01658788163606
 30
0
 11
286.134059681576
 21
112.10298766642033
 31
0
  0
ARC
  5
8E
330
1F
100
AcDbEntity
  8
0
 62
7
100
AcDbCircle
 10
283.23628667637814
 20
111.32651383515137
 30
0
 40
3.00000000004979
100
AcDbArc
 50
15.0003301178678
 51
194.99966988194913
  0
LINE
  5
8F
330
1F
100
AcDbEntity
  8
0
 62
7
100
AcDbLine
 10
416.04143443300438
 20
58.263859235188626
 30
0
 11
415.65320586535063
 21
59.712747974622232
 31
0
  0
LINE
  5
90
330
1F
100
AcDbEntity
  8
0
 62
7
100
AcDbLine
 10
415.65320586535063
 20
59.712747974622232
 30
0
 11
380.87987611895119
 21
50.395262350905355
 31
0
  0
ARC
  5
91
330
1F
100
AcDbEntity
  8
0
 62
7
100
AcDbCircle
 10
379.32696184835709
 20
56.190817308676259
 30
0
 40
6.00000000002979
100
AcDbArc
 50
195.00000000028461
 51
284.9999999997159
  0
LINE
  5
92
330
1F
100
AcDbEntity
  8
0
 62
7
100
AcDbLine
 10
373.5314068906016
 20
54.637903038024632
 30
0
 11
345.9006416381776
 21
157.7573228120842
 31
0
  0
ARC
  5
93
330
1F
100
AcDbEntity
  8
0
 62
7
100
AcDbCircle
 10
332.37768007011431
 20
154.13385618062071
 30
0
 40
14.0000000000231
100
AcDbArc
 50
15.000000000094156
 51
104.99999999990563
  0
LINE
  5
94
330
1F
100
AcDbEntity
  8
0
 62
7
100
AcDbLine
 10
328.75421343869533
 20
167.65681774869589
 30
0
 11
237.47422285437807
 21
143.19841798650859
 31
0
  0
ARC
  5
95
330
1F
100
AcDbEntity
  8
0
 62
7
100
AcDbCircle
 10
241.09768948575214
 20
129.675456418497
 30
0
 40
13.9999999999496
100
AcDbArc
 50
104.99999999979545
 51
195.00000000020458
  0
LINE
  5
96
330
1F
100
AcDbEntity
  8
0
 62
7
100
AcDbLine
 10
227.57472791776638
 20
126.05198978702634
 30
0
 11
236.37457545125113
 21
93.210511693197674
 31
0
  0
ARC
  5
97
330
1F
100
AcDbEntity
  8
0
 62
7
100
AcDbCircle
 10
238.30642710370506
 20
93.7281497831865
 30
0
 40
1.99999999982332
100
AcDbArc
 50
194.99999999493775
 51
285.00000000503957
  0
LINE
  5
98
330
1F
100
AcDbEntity
  8
0
 62
7
100
AcDbLine
 10
238.82406519403429
 20
91.796298130824567
 30
0
 11
242.68776849919055
 21
92.831574311234647
 31
0
  0
ARC
  5
99
330
1F
100
AcDbEntity
  8
0
 62
7
100
AcDbCircle
 10
242.17013040988166
 20
94.763425963296712
 30
0
 40
1.9999999992696
100
AcDbArc
 50
284.99999997902836
 51
15.000000020924855
  0
LINE
  5
9A
330
1F
100
AcDbEntity
  8
0
 62
7
100
AcDbLine
 10
244.10198206156468
 20
95.281064054018088
 30
0
 11
235.30213452807891
 21
128.12254214784653
 31
0
  0
ARC
  5
9B
330
1F
100
AcDbEntity
  8
0
 62
7
100
AcDbCircle
 10
241.09768948607547
 20
129.67545641831032
 30
0
 40
6.00000000021388
100
AcDbArc
 50
105.00000000204369
 51
194.99999999795617
  0
LINE
  5
9C
330
1F
100
AcDbEntity
  8
0
 62
7
100
AcDbLine
 10
239.54477521519823
 20
135.47101137619606
 30
0
 11
330.82476579951526
 21
159.9294111383843
 31
0
  0
ARC
  5
9D
330
1F
100
AcDbEntity
  8
0
 62
7
100
AcDbCircle
 10
332.37768007015944
 20
154.13385618070012
 30
0
 40
5.99999999995889
100
AcDbArc
 50
14.99999999959879
 51
105.00000000039218
  0
LINE
  5
9E
330
1F
100
AcDbEntity
  8
0
 62
7
100
AcDbLine
 10
338.17323502786508
 20
155.68677045126404
 30
0
 11
365.80400028028907
 21
52.567350677204473
 31
0
  0
ARC
  5
9F
330
1F
100
AcDbEntity
  8
0
 62
7
100
AcDbCircle
 10
379.32696184832355
 20
56.190817308618051
 30
0
 40
13.9999999999823
100
AcDbArc
 50
194.99999999992738
 51
285.00000000007248
  0
LINE
  5
A0
330
1F
100
AcDbEntity
  8
0
 62
7
100
AcDbLine
 10
382.95042847977135
 20
42.667855740592806
 30
0
 11
417.72375822617056
 21
51.985341364310564
 31
0
  0
LINE
  5
A1
330
1F
100
AcDbEntity
  8
0
 62
7
100
AcDbLine
 10
417.72375822617056
 20
51.985341364310564
 30
0
 11
417.33552965851675
 21
53.434230103744163
 31
0
  0
LINE
  5
A2
330
1F
100
AcDbEntity
  8
0
 62
7
100
AcDbLine
 10
417.33552965851675
 20
53.434230103744163
 30
0
 11
412.98886344021423
 21
52.269544400782358
 31
0
  0
ARC
  5
A3
330
1F
100
AcDbEntity
  8
0
 62
7
100
AcDbCircle
 10
412.34180163114161
 20
54.684355162613052
 30
0
 40
2.49999999995634
100
AcDbArc
 50
104.99966316709011
 51
285.0003368329098
  0
LINE
  5
A4
330
1F
100
AcDbEntity
  8
0
 62
7
100
AcDbLine
 10
411.69476821470187
 20
57.099173532226821
 30
0
 11
416.04143443300438
 21
58.263859235188626
 31
0
  0
LINE
  5
A5
330
1F
100
AcDbEntity
  8
0
 62
7
100
AcDbLine
 10
241.86266653337094
 20
99.774600074258757
 30
0
 11
241.30361739594946
 21
101.86099985904323
 31
0
  0
ARC
  5
A6
330
1F
100
AcDbEntity
  8
0
 62
7
100
AcDbCircle
 10
238.40584678407856
 20
101.0845170957565
 30
0
 40
3.00000000011732
100
AcDbArc
 50
15.000506724568949
 51
194.99949327547131
  0
LINE
  5
A7
330
1F
100
AcDbEntity
  8
0
 62
7
100
AcDbLine
 10
235.50806243821563
 20
100.30808558842608
 30
0
 11
236.06711157563672
 21
98.221685803642771
 31
0
  0
ARC
  5
A8
330
1F
100
AcDbEntity
  8
0
 62
7
100
AcDbCircle
 10
238.96488458083326
 20
98.9981596349168
 30
0
 40
3.00000000004979
100
AcDbArc
 50
195.00033011796785
 51
14.99966988204895
  0
LINE
  5
A9
330
1F
100
AcDbEntity
  8
0
 62
7
100
AcDbLine
 10
528.4716811000219
 20
161.03834019306109
 30
0
 11
389.00000023362691
 21
161.03834019306109
 31
0
  0
ARC
  5
AA
330
1F
100
AcDbEntity
  8
0
 62
7
100
AcDbCircle
 10
389.00000023362691
 20
146.0383401930599
 30
0
 40
15.0000000000012
100
AcDbArc
 50
90
 51
179.99999999999545
  0
LINE
  5
AB
330
1F
100
AcDbEntity
  8
0
 62
7
100
AcDbLine
 10
374.00000023362588
 20
146.03834019306109
 30
0
 11
374.00000023362691
 21
81.909800678165183
 31
0
  0
ARC
  5
AC
330
1F
100
AcDbEntity
  8
0
 62
7
100
AcDbCircle
 10
389.00000023360786
 20
81.9098006781444
 30
0
 40
14.9999999999813
100
AcDbArc
 50
179.99999999992065
 51
270.0000000000727
  0
LINE
  5
AD
330
1F
100
AcDbEntity
  8
0
 62
7
100
AcDbLine
 10
389.00000023362691
 20
66.909800678163109
 30
0
 11
458.50000023362685
 21
66.909800678163109
 31
0
  0
ARC
  5
AE
330
1F
100
AcDbEntity
  8
0
 62
7
100
AcDbCircle
 10
458.50000023365033
 20
68.909800678139689
 30
0
 40
1.99999999997654
100
AcDbArc
 50
269.99999999932743
 51
7.0511625067001266E-10
  0
LINE
  5
AF
330
1F
100
AcDbEntity
  8
0
 62
7
100
AcDbLine
 10
460.50000023362685
 20
68.9098006781643
 30
0
 11
460.50000023362685
 21
74.9098006781643
 31
0
  0
ARC
  5
B0
330
1F
100
AcDbEntity
  8
0
 62
7
100
AcDbCircle
 10
458.50000023361355
 20
74.909800678150887
 30
0
 40
2.00000000001336
100
AcDbArc
 50
3.8431278326804374E-10
 51
89.99999999961895
  0
LINE
  5
B1
330
1F
100
AcDbEntity
  8
0
 62
7
100
AcDbLine
 10
458.50000023362685
 20
76.9098006781643
 30
0
 11
389.00000023362691
 21
76.909800678165183
 31
0
  0
ARC
  5
B2
330
1F
100
AcDbEntity
  8
0
 62
7
100
AcDbCircle
 10
389.00000023364788
 20
81.909800678186073
 30
0
 40
5.00000000002094
100
AcDbArc
 50
180.00000000023937
 51
269.99999999975967
  0
LINE
  5
B3
330
1F
100
AcDbEntity
  8
0
 62
7
100
AcDbLine
 10
384.00000023362691
 20
81.909800678165183
 30
0
 11
384.00000023362691
 21
146.03834019306109
 31
0
  0
ARC
  5
B4
330
1F
100
AcDbEntity
  8
0
 62
7
100
AcDbCircle
 10
389.00000023357688
 20
146.03834019311057
 30
0
 40
4.99999999994956
100
AcDbArc
 50
89.999999999426791
 51
180.00000000056704
  0
LINE
  5
B5
330
1F
100
AcDbEntity
  8
0
 62
7
100
AcDbLine
 10
389.00000023362691
 20
151.03834019306018
 30
0
 11
528.4716811000219
 21
151.03834019306021
 31
0
  0
ARC
  5
B6
330
1F
100
AcDbEntity
  8
0
 62
7
100
AcDbCircle
 10
528.4716810999829
 20
153.03834019309909
 30
0
 40
2.00000000003892
100
AcDbArc
 50
270.00000000111709
 51
359.9999999988853
  0
LINE
  5
B7
330
1F
100
AcDbEntity
  8
0
 62
7
100
AcDbLine
 10
530.4716811000219
 20
153.03834019306018
 30
0
 11
530.4716811000219
 21
159.03834019306109
 31
0
  0
ARC
  5
B8
330
1F
100
AcDbEntity
  8
0
 62
7
100
AcDbCircle
 10
528.47168109990048
 20
159.0383401929397
 30
0
 40
2.0000000001214
100
AcDbArc
 50
3.4775421551887371E-09
 51
89.999999996521638
  0
ARC
  5
B9
330
1F
100
AcDbEntity
  8
0
 62
7
100
AcDbCircle
 10
452.41998552878806
 20
71.909800678169191
 30
0
 40
2.99999999996589
100
AcDbArc
 50
89.999719158212827
 51
270.00028084178717
  0
LINE
  5
BA
330
1F
100
AcDbEntity
  8
0
 62
7
100
AcDbLine
 10
452.42000023362965
 20
68.9098006781672
 30
0
 11
454.58000023362388
 21
68.909800678163109
 31
0
  0
ARC
  5
BB
330
1F
100
AcDbEntity
  8
0
 62
7
100
AcDbCircle
 10
454.58000419453413
 20
71.9098006781637
 30
0
 40
2.99999999999795
100
AcDbArc
 50
269.99992435218655
 51
90.000075647683161
  0
LINE
  5
BC
330
1F
100
AcDbEntity
  8
0
 62
7
100
AcDbLine
 10
454.5800002336307
 20
74.9098006781643
 30
0
 11
452.42000023362965
 21
74.909800678171123
 31
0
  0
ARC
  5
BD
330
1F
100
AcDbEntity
  8
0
 62
7
100
AcDbCircle
 10
525.05169267211238
 20
156.03834019306109
 30
0
 40
2.99999999997772
100
AcDbArc
 50
269.99977916895244
 51
90.000220831047514
  0
LINE
  5
BE
330
1F
100
AcDbEntity
  8
0
 62
7
100
AcDbLine
 10
525.05168110942577
 20
159.03834019306109
 30
0
 11
522.89168110942273
 21
159.03834019306109
 31
0
  0
ARC
  5
BF
330
1F
100
AcDbEntity
  8
0
 62
7
100
AcDbCircle
 10
522.891703116376
 20
156.03834019306109
 30
0
 40
3.00000000008072
100
AcDbArc
 50
90.000420301847214
 51
269.99957969820923
  0
LINE
  5
C0
330
1F
100
AcDbEntity
  8
0
 62
7
100
AcDbLine
 10
522.89168110942569
 20
153.03834019306109
 30
0
 11
525.05168110942577
 21
153.03834019306109
 31
0
  0
ARC
  5
C1
330
1F
100
AcDbEntity
  8
0
 62
7
100
AcDbCircle
 10
247.69134084057845
 20
124.49554620997584
 30
0
 40
1.99999999977412
100
AcDbArc
 50
104.9999999934288
 51
195.00000000637135
  0
LINE
  5
C2
330
1F
100
AcDbEntity
  8
0
 62
7
100
AcDbLine
 10
245.75948918827606
 20
123.97790811961444
 30
0
 11
247.31240345888108
 21
118.18235316187733
 31
0
  0
ARC
  5
C3
330
1F
100
AcDbEntity
  8
0
 62
7
100
AcDbCircle
 10
249.24425511131864
 20
118.69999125183237
 30
0
 40
1.99999999979953
100
AcDbArc
 50
194.99999999412444
 51
285.00000000564376
  0
LINE
  5
C4
330
1F
100
AcDbEntity
  8
0
 62
7
100
AcDbLine
 10
249.76189320166208
 20
116.76813959949889
 30
0
 11
320.73008725141455
 21
135.78400988329258
 31
0
  0
ARC
  5
C5
330
1F
100
AcDbEntity
  8
0
 62
7
100
AcDbCircle
 10
322.02418247704458
 20
130.95438075206286
 30
0
 40
4.99999999982206
100
AcDbArc
 50
14.99999999787404
 51
105.00000000193926
  0
LINE
  5
C6
330
1F
100
AcDbEntity
  8
0
 62
7
100
AcDbLine
 10
326.85381160836607
 20
132.24847597735021
 30
0
 11
342.15740374381755
 21
75.134692589131419
 31
0
  0
ARC
  5
C7
330
1F
100
AcDbEntity
  8
0
 62
7
100
AcDbCircle
 10
337.32777461220354
 20
73.840597363723347
 30
0
 40
5.0000000001359
100
AcDbArc
 50
285.00000000146741
 51
14.999999998342707
  0
LINE
  5
C8
330
1F
100
AcDbEntity
  8
0
 62
7
100
AcDbLine
 10
338.621869837875
 20
69.010968232179891
 30
0
 11
290.80854143654324
 21
56.199425499687344
 31
0
  0
ARC
  5
C9
330
1F
100
AcDbEntity
  8
0
 62
7
100
AcDbCircle
 10
291.32617952636446
 20
54.26757384732803
 30
0
 40
1.99999999968939
100
AcDbArc
 50
104.99999999100146
 51
195.00000000880121
  0
LINE
  5
CA
330
1F
100
AcDbEntity
  8
0
 62
7
100
AcDbLine
 10
289.39432787416587
 20
53.749935756906631
 30
0
 11
290.94724214477174
 21
47.954380799169762
 31
0
  0
ARC
  5
CB
330
1F
100
AcDbEntity
  8
0
 62
7
100
AcDbCircle
 10
292.87909379734606
 20
48.472018889363433
 30
0
 40
1.99999999999342
100
AcDbArc
 50
194.99999999971362
 51
285.000000000063
  0
LINE
  5
CC
330
1F
100
AcDbEntity
  8
0
 62
7
100
AcDbLine
 10
293.39673188755154
 20
46.540167236792151
 30
0
 11
341.2100602888836
 21
59.351709969283732
 31
0
  0
ARC
  5
CD
330
1F
100
AcDbEntity
  8
0
 62
7
100
AcDbCircle
 10
337.3277746123731
 20
73.840597363625392
 30
0
 40
14.9999999999984
100
AcDbArc
 50
284.99999999989365
 51
14.999999999909972
  0
LINE
  5
CE
330
1F
100
AcDbEntity
  8
0
 62
7
100
AcDbLine
 10
351.81666200671361
 20
77.72288304014
 30
0
 11
336.51306987126031
 21
134.83666642835834
 31
0
  0
ARC
  5
CF
330
1F
100
AcDbEntity
  8
0
 62
7
100
AcDbCircle
 10
322.02418247693032
 20
130.95438075186786
 30
0
 40
14.999999999982
100
AcDbArc
 50
14.99999999983134
 51
104.99999999996525
  0
LINE
  5
D0
330
1F
100
AcDbEntity
  8
0
 62
7
100
AcDbLine
 10
318.14189680040596
 20
145.44326814618884
 30
0
 11
247.17370275065343
 21
126.42739786239515
 31
0
  0
LINE
  5
D1
330
1F
100
AcDbEntity
  8
0
 62
7
100
AcDbLine
 10
297.19900855058131
 20
55.8411936413277
 30
0
 11
295.11260876579883
 21
55.28214450390643
 31
0
  0
ARC
  5
D2
330
1F
100
AcDbEntity
  8
0
 62
7
100
AcDbCircle
 10
295.88905639464559
 20
52.384364477787621
 30
0
 40
2.99999999998681
100
AcDbArc
 50
104.99981203521313
 51
285.00018796458716
  0
LINE
  5
D3
330
1F
100
AcDbEntity
  8
0
 62
7
100
AcDbLine
 10
296.66552303640538
 20
49.486589546163621
 30
0
 11
298.75192282118792
 21
50.045638683584677
 31
0
  0
ARC
  5
D4
330
1F
100
AcDbEntity
  8
0
 62
7
100
AcDbCircle
 10
297.97546057770188
 20
52.9434147937227
 30
0
 40
3.00000000000773
100
AcDbArc
 50
285.00010100051679
 51
104.9998989992835
  0
LINE
  5
D5
330
1F
100
AcDbEntity
  8
0
 62
7
100
AcDbLine
 10
252.54772142828887
 20
119.58515238388932
 30
0
 11
254.63412121307431
 21
120.14420152130715
 31
0
  0
ARC
  5
D6
330
1F
100
AcDbEntity
  8
0
 62
7
100
AcDbCircle
 10
253.8576676454814
 20
123.04197995614061
 30
0
 40
2.99999999999773
100
AcDbArc
 50
284.99992945800932
 51
105.00007054179085
  0
LINE
  5
D7
330
1F
100
AcDbEntity
  8
0
 62
7
100
AcDbLine
 10
253.08120694246929
 20
125.93975647904426
 30
0
 11
250.99480715768385
 21
125.38070734162645
 31
0
  0
ARC
  5
D8
330
1F
100
AcDbEntity
  8
0
 62
7
100
AcDbCircle
 10
251.77127124773267
 20
122.48293172627653
 30
0
 40
3.00000000000864
100
AcDbArc
 50
105.00013751135978
 51
284.99986248844033
  0
LINE
  5
D9
330
1F
100
AcDbEntity
  8
0
 62
7
100
AcDbLine
 10
168.52831910002186
 20
33.180433235188644
 30
0
 11
168.5283191000114
 21
27.180433235188641
 31
0
  0
ARC
  5
DA
330
1F
100
AcDbEntity
  8
0
 62
7
100
AcDbCircle
 10
170.52831910039663
 20
27.180433235569485
 30
0
 40
2.00000000038524
100
AcDbArc
 50
180.00000001091038
 51
269.99999998886307
  0
LINE
  5
DB
330
1F
100
AcDbEntity
  8
0
 62
7
100
AcDbLine
 10
170.52831910000788
 20
25.180433235184243
 30
0
 11
462.49999996640383
 21
25.180433234675547
 31
0
  0
ARC
  5
DC
330
1F
100
AcDbEntity
  8
0
 62
7
100
AcDbCircle
 10
462.49999996649103
 20
40.180433234614888
 30
0
 40
14.9999999999393
100
AcDbArc
 50
269.99999999966695
 51
1.3168683788393538E-10
  0
LINE
  5
DD
330
1F
100
AcDbEntity
  8
0
 62
7
100
AcDbLine
 10
477.4999999664301
 20
40.180433234649364
 30
0
 11
477.49999996657755
 21
124.68043323464936
 31
0
  0
ARC
  5
DE
330
1F
100
AcDbEntity
  8
0
 62
7
100
AcDbCircle
 10
482.49999996665855
 20
124.68043323455923
 30
0
 40
5.00000000008139
100
AcDbArc
 50
90.0000000008279
 51
179.99999999896724
  0
LINE
  5
DF
330
1F
100
AcDbEntity
  8
0
 62
7
100
AcDbLine
 10
482.4999999665863
 20
129.68043323464065
 30
0
 11
552.99999996658528
 21
129.68043323451849
 31
0
  0
ARC
  5
E0
330
1F
100
AcDbEntity
  8
0
 62
7
100
AcDbCircle
 10
552.99999996638667
 20
124.68043323432828
 30
0
 40
5.00000000019024
100
AcDbArc
 50
2.0692637867941007E-09
 51
89.999999997724089
  0
LINE
  5
E1
330
1F
100
AcDbEntity
  8
0
 62
7
100
AcDbLine
 10
557.99999996657652
 20
124.68043323450885
 30
0
 11
557.9999999663986
 21
22.208752368117768
 31
0
  0
ARC
  5
E2
330
1F
100
AcDbEntity
  8
0
 62
7
100
AcDbCircle
 10
559.99999996668384
 20
22.208752368399676
 30
0
 40
2.0000000002854
100
AcDbArc
 50
180.00000000807606
 51
269.99999999173076
  0
LINE
  5
E3
330
1F
100
AcDbEntity
  8
0
 62
7
100
AcDbLine
 10
559.99999996639519
 20
20.208752368114279
 30
0
 11
565.99999996639417
 21
20.208752368103802
 31
0
  0
ARC
  5
E4
330
1F
100
AcDbEntity
  8
0
 62
7
100
AcDbCircle
 10
565.99999996637973
 20
22.208752368121495
 30
0
 40
2.0000000000177
100
AcDbArc
 50
270.00000000041365
 51
359.99999999939297
  0
LINE
  5
E5
330
1F
100
AcDbEntity
  8
0
 62
7
100
AcDbLine
 10
567.9999999663977
 20
22.208752368100306
 30
0
 11
567.99999996657652
 21
124.6804332344914
 31
0
  0
ARC
  5
E6
330
1F
100
AcDbEntity
  8
0
 62
7
100
AcDbCircle
 10
552.99999996656652
 20
124.68043323450767
 30
0
 40
15.0000000000099
100
AcDbArc
 50
359.99999999993787
 51
89.999999999862339
  0
LINE
  5
E7
330
1F
100
AcDbEntity
  8
0
 62
7
100
AcDbLine
 10
552.99999996660256
 20
139.68043323451758
 30
0
 11
482.49999996660375
 21
139.68043323464065
 31
0
  0
ARC
  5
E8
330
1F
100
AcDbEntity
  8
0
 62
7
100
AcDbCircle
 10
482.49999996654952
 20
124.68043323466893
 30
0
 40
14.9999999999717
100
AcDbArc
 50
89.999999999792863
 51
180.00000000000801
  0
LINE
  5
E9
330
1F
100
AcDbEntity
  8
0
 62
7
100
AcDbLine
 10
467.49999996657755
 20
124.68043323466682
 30
0
 11
467.4999999664301
 21
40.180433234666815
 31
0
  0
ARC
  5
EA
330
1F
100
AcDbEntity
  8
0
 62
7
100
AcDbCircle
 10
462.49999996636791
 20
40.180433234736405
 30
0
 40
5.00000000006178
100
AcDbArc
 50
270.00000000061362
 51
359.99999999920254
  0
LINE
  5
EB
330
1F
100
AcDbEntity
  8
0
 62
7
100
AcDbLine
 10
462.49999996642146
 20
35.180433234674631
 30
0
 11
170.52831910002533
 21
35.180433235184239
 31
0
  0
ARC
  5
EC
330
1F
100
AcDbEntity
  8
0
 62
7
100
AcDbCircle
 10
170.52831909984405
 20
33.180433235362052
 30
0
 40
1.9999999998222
100
AcDbArc
 50
89.999999994806885
 51
180.00000000496777
  0
ARC
  5
ED
330
1F
100
AcDbEntity
  8
0
 62
7
100
AcDbCircle
 10
176.44833800580119
 20
30.180433235174821
 30
0
 40
3.00000000005957
100
AcDbArc
 50
90.000361075623488
 51
269.999638925093
  0
LINE
  5
EE
330
1F
100
AcDbEntity
  8
0
 62
7
100
AcDbLine
 10
176.44831909996327
 20
27.180433235174821
 30
0
 11
178.60831909996341
 21
27.180433235171048
 31
0
  0
ARC
  5
EF
330
1F
100
AcDbEntity
  8
0
 62
7
100
AcDbCircle
 10
178.60833673649853
 20
30.180433235171048
 30
0
 40
2.99999999994816
100
AcDbArc
 50
269.99966316699079
 51
90.000336832809438
  0
LINE
  5
F0
330
1F
100
AcDbEntity
  8
0
 62
7
100
AcDbLine
 10
178.60831909997387
 20
33.180433235171051
 30
0
 11
176.44831909992575
 21
33.180433235174824
 31
0
  0
ARC
  5
F1
330
1F
100
AcDbEntity
  8
0
 62
7
100
AcDbCircle
 10
563.00977428666647
 20
28.28815308811555
 30
0
 40
2.99999999993111
100
AcDbArc
 50
0.11231778296824292
 51
180.00000140409196
  0
LINE
  5
F2
330
1F
100
AcDbEntity
  8
0
 62
7
100
AcDbLine
 10
560.00977428673525
 20
28.288153014597466
 30
0
 11
560.01401079136156
 21
26.129988818265122
 31
0
  0
ARC
  5
F3
330
1F
100
AcDbEntity
  8
0
 62
7
100
AcDbCircle
 10
563.01401079136451
 20
26.130014421351611
 30
0
 40
3.00000000011232
100
AcDbArc
 50
180.00048898293272
 51
359.99951101686713
  0
LINE
  5
F4
330
1F
100
AcDbEntity
  8
0
 62
7
100
AcDbLine
 10
566.01401079136747
 20
26.129988818254645
 30
0
 11
566.00976852234635
 21
28.29403402971284
 31
0
  0
ARC
  5
F5
330
1F
100
AcDbEntity
  8
0
 62
7
100
AcDbCircle
 10
134.97336180592589
 20
29.878455173525388
 30
0
 40
2.00000000012992
100
AcDbArc
 50
199.95609481642242
 51
289.95609480897821
  0
LINE
  5
F6
330
1F
100
AcDbEntity
  8
0
 62
7
100
AcDbLine
 10
135.65596173754437
 20
27.998546310342345
 30
0
 11
159.15482252524885
 21
36.531045456552981
 31
0
  0
ARC
  5
F7
330
1F
100
AcDbEntity
  8
0
 62
7
100
AcDbCircle
 10
154.03532303750541
 20
50.630361929187387
 30
0
 40
15.0000000000168
100
AcDbArc
 50
289.95609481276421
 51
19.956094812635818
  0
LINE
  5
F8
330
1F
100
AcDbEntity
  8
0
 62
7
100
AcDbLine
 10
168.13463951015126
 20
55.749861416899222
 30
0
 11
140.44547174440856
 21
132.00699165572186
 31
0
  0
ARC
  5
F9
330
1F
100
AcDbEntity
  8
0
 62
7
100
AcDbCircle
 10
138.56556288151933
 20
131.32439172429665
 30
0
 40
1.99999999978779
100
AcDbArc
 50
19.956094806646664
 51
109.956094818779
  0
LINE
  5
FA
330
1F
100
AcDbEntity
  8
0
 62
7
100
AcDbLine
 10
137.88296294969604
 20
133.20430058704136
 30
0
 11
132.243236360646
 21
131.15650079195345
 31
0
  0
ARC
  5
FB
330
1F
100
AcDbEntity
  8
0
 62
7
100
AcDbCircle
 10
132.92583629196093
 20
129.27659192911503
 30
0
 40
1.99999999970242
100
AcDbArc
 50
109.95609480417406
 51
199.956094821226
  0
LINE
  5
FC
330
1F
100
AcDbEntity
  8
0
 62
7
100
AcDbLine
 10
131.04592742932567
 20
128.59399199724061
 30
0
 11
158.73509519506837
 21
52.336861758417967
 31
0
  0
ARC
  5
FD
330
1F
100
AcDbEntity
  8
0
 62
7
100
AcDbCircle
 10
154.03532303756293
 20
50.630361929160514
 30
0
 40
4.9999999999719
100
AcDbArc
 50
289.95609481237847
 51
19.956094813022009
  0
LINE
  5
FE
330
1F
100
AcDbEntity
  8
0
 62
7
100
AcDbLine
 10
155.74182286676762
 20
45.930589771635852
 30
0
 11
132.24296207906315
 21
37.398090625425219
 31
0
  0
ARC
  5
FF
330
1F
100
AcDbEntity
  8
0
 62
7
100
AcDbCircle
 10
132.92556201082306
 20
35.518181762378894
 30
0
 40
2.0000000000497
100
AcDbArc
 50
109.95609481412329
 51
199.95609481127647
  0
LINE
  5
100
330
1F
100
AcDbEntity
  8
0
 62
7
100
AcDbLine
 10
131.04565314774283
 20
34.835581830712393
 30
0
 11
133.09345294283156
 21
29.195855241662667
 31
0
  0
ARC
  5
101
330
1F
100
AcDbEntity
  8
0
 62
7
100
AcDbCircle
 10
138.50340007234558
 20
122.70566893906417
 30
0
 40
3.00000000001501
100
AcDbArc
 50
199.95627603809689
 51
19.95591358730281
  0
LINE
  5
102
330
1F
100
AcDbEntity
  8
0
 62
7
100
AcDbLine
 10
141.32326660544521
 20
123.72955991743771
 30
0
 11
140.24475871336512
 21
126.69981592100392
 31
0
  0
ARC
  5
103
330
1F
100
AcDbEntity
  8
0
 62
7
100
AcDbCircle
 10
137.424892929328
 20
125.67592287968078
 30
0
 40
2.99999999999113
100
AcDbArc
 50
19.955955503627305
 51
199.95623412177238
  0
LINE
  5
104
330
1F
100
AcDbEntity
  8
0
 62
7
100
AcDbLine
 10
134.60503212431536
 20
124.65201612591517
 30
0
 11
135.68354001639545
 21
121.68176012234896
 31
0
  0
ARC
  5
105
330
1F
100
AcDbEntity
  8
0
 62
7
100
AcDbCircle
 10
139.66440012376893
 20
34.773427805510437
 30
0
 40
2.99999999995907
100
AcDbArc
 50
289.95578450860171
 51
109.95640511689395
  0
LINE
  5
106
330
1F
100
AcDbEntity
  8
0
 62
7
100
AcDbLine
 10
138.64048495432365
 20
37.593285554770532
 30
0
 11
136.61018338227092
 21
36.8560776285361
 31
0
  0
ARC
  5
107
330
1F
100
AcDbEntity
  8
0
 62
7
100
AcDbCircle
 10
137.63409788608084
 20
34.03621963758215
 30
0
 40
3.0000000000432
100
AcDbArc
 50
109.95639159209139
 51
289.95579803332612
  0
LINE
  5
108
330
1F
100
AcDbEntity
  8
0
 62
7
100
AcDbLine
 10
138.65798317736255
 20
31.216351039481129
 30
0
 11
140.68828474941921
 21
31.953558965716745
 31
0
  0
ARC
  5
109
330
1F
100
AcDbEntity
  8
0
 62
7
100
AcDbCircle
 10
418.86233050341161
 20
13.004425737453806
 30
0
 40
1.9999999998222
100
AcDbArc
 50
359.26860990123231
 51
89.268609911393909
  0
LINE
  5
10A
330
1F
100
AcDbEntity
  8
0
 62
7
100
AcDbLine
 10
418.88786014038141
 20
15.004262790047083
 30
0
 11
126.93996726247855
 21
18.731228325323887
 31
0
  0
ARC
  5
10B
330
1F
100
AcDbEntity
  8
0
 62
7
100
AcDbCircle
 10
127.00379135541596
 20
23.730820957306864
 30
0
 40
5.00000000006178
100
AcDbArc
 50
179.26860990699745
 51
269.26860990558976
  0
LINE
  5
10C
330
1F
100
AcDbEntity
  8
0
 62
7
100
AcDbLine
 10
122.00419872343122
 20
23.794645050121446
 30
0
 11
123.08282589301274
 21
108.2877605296032
 31
0
  0
ARC
  5
10D
330
1F
100
AcDbEntity
  8
0
 62
7
100
AcDbCircle
 10
108.08404799727509
 20
108.47923280825508
 30
0
 40
14.9999999999717
100
AcDbArc
 50
359.26860990619195
 51
89.268609906406908
  0
LINE
  5
10E
330
1F
100
AcDbEntity
  8
0
 62
7
100
AcDbLine
 10
108.27552027587069
 20
123.47801070399314
 30
0
 11
37.781264165771518
 21
124.37793041352566
 31
0
  0
ARC
  5
10F
330
1F
100
AcDbEntity
  8
0
 62
7
100
AcDbCircle
 10
37.589791887157389
 20
109.37915251774965
 30
0
 40
15.0000000000099
100
AcDbArc
 50
89.268609906337971
 51
179.26860990626216
  0
LINE
  5
110
330
1F
100
AcDbEntity
  8
0
 62
7
100
AcDbLine
 10
22.591013991381487
 20
109.57062479638363
 30
0
 11
21.282981576054
 21
7.1072926683293645
 31
0
  0
ARC
  5
111
330
1F
100
AcDbEntity
  8
0
 62
7
100
AcDbCircle
 10
23.282818628840914
 20
7.0817630311969673
 30
0
 40
2.0000000000177
100
AcDbArc
 50
179.26860990680683
 51
269.26860990578655
  0
LINE
  5
112
330
1F
100
AcDbEntity
  8
0
 62
7
100
AcDbLine
 10
23.257288991672908
 20
5.0819259784107071
 30
0
 11
29.256800149978289
 21
5.0053370669611423
 31
0
  0
ARC
  5
113
330
1F
100
AcDbEntity
  8
0
 62
7
100
AcDbCircle
 10
29.282329786846731
 20
7.0051741200189523
 30
0
 40
2.0000000002854
100
AcDbArc
 50
269.26860991446705
 51
359.26860989812405
  0
LINE
  5
114
330
1F
100
AcDbEntity
  8
0
 62
7
100
AcDbLine
 10
31.282166839896945
 20
6.9796444825800821
 30
0
 11
32.590199255225571
 21
109.44297661063432
 31
0
  0
ARC
  5
115
330
1F
100
AcDbEntity
  8
0
 62
7
100
AcDbCircle
 10
37.589791887335082
 20
109.37915251756796
 30
0
 40
5.00000000019024
100
AcDbArc
 50
89.26860990847814
 51
179.26860990413078
  0
LINE
  5
116
330
1F
100
AcDbEntity
  8
0
 62
7
100
AcDbLine
 10
37.653615980022096
 20
114.37874514968257
 30
0
 11
108.14787209012138
 21
113.47882544014915
 31
0
  0
ARC
  5
117
330
1F
100
AcDbEntity
  8
0
 62
7
100
AcDbCircle
 10
108.0840479971647
 20
108.47923280814679
 30
0
 40
5.00000000008139
100
AcDbArc
 50
359.26860990723287
 51
89.268609905371832
  0
LINE
  5
118
330
1F
100
AcDbEntity
  8
0
 62
7
100
AcDbLine
 10
113.08364062916871
 20
108.41540871535251
 30
0
 11
112.00501345958719
 21
23.92229323587074
 31
0
  0
ARC
  5
119
330
1F
100
AcDbEntity
  8
0
 62
7
100
AcDbCircle
 10
127.00379135529141
 20
23.730820957186928
 30
0
 40
14.9999999999393
100
AcDbArc
 50
179.26860990606835
 51
269.268609906533
  0
LINE
  5
11A
330
1F
100
AcDbEntity
  8
0
 62
7
100
AcDbLine
 10
126.81231907672924
 20
8.7320430614808018
 30
0
 11
418.7602119546321
 21
5.0050775262030873
 31
0
  0
ARC
  5
11B
330
1F
100
AcDbEntity
  8
0
 62
7
100
AcDbCircle
 10
418.78574159140169
 20
7.0049145793620147
 30
0
 40
2.00000000038524
100
AcDbArc
 50
269.26860991733565
 51
359.26860989528967
  0
LINE
  5
11C
330
1F
100
AcDbEntity
  8
0
 62
7
100
AcDbLine
 10
420.78557864455075
 20
6.9793849418229374
 30
0
 11
420.86216755600037
 21
12.978896100129335
 31
0
  0
LINE
  5
11D
330
1F
100
AcDbEntity
  8
0
 62
7
100
AcDbLine
 10
412.942812827132
 20
13.07999346324155
 30
0
 11
410.78298881009357
 21
13.107565471364012
 31
0
  0
ARC
  5
11E
330
1F
100
AcDbEntity
  8
0
 62
7
100
AcDbCircle
 10
410.74467671927584
 20
10.107810117337918
 30
0
 40
2.99999999994816
100
AcDbArc
 50
89.268273073391455
 51
269.26894673920879
  0
LINE
  5
11F
330
1F
100
AcDbEntity
  8
0
 62
7
100
AcDbLine
 10
410.706399898644
 20
7.1080543130576146
 30
0
 11
412.86622391563446
 21
7.0804823049357655
 31
0
  0
ARC
  5
120
330
1F
100
AcDbEntity
  8
0
 62
7
100
AcDbCircle
 10
412.90449946706684
 20
10.080238125418489
 30
0
 40
3.00000000005957
100
AcDbArc
 50
269.26897098110805
 51
89.268248830575942
  0
LINE
  5
121
330
1F
100
AcDbEntity
  8
0
 62
7
100
AcDbLine
 10
23.350728385152138
 20
13.166673596733936
 30
0
 11
23.318862817247918
 21
11.002858849657898
 31
0
  0
ARC
  5
122
330
1F
100
AcDbEntity
  8
0
 62
7
100
AcDbCircle
 10
26.318618723222926
 20
10.964589994938821
 30
0
 40
3.00000000011232
100
AcDbArc
 50
179.26909888933281
 51
359.26812092326713
  0
LINE
  5
123
330
1F
100
AcDbEntity
  8
0
 62
7
100
AcDbLine
 10
29.318373975560235
 20
10.926269938208241
 30
0
 11
29.350158709448124
 21
13.084204222887449
 31
0
  0
ARC
  5
124
330
1F
100
AcDbEntity
  8
0
 62
7
100
AcDbCircle
 10
26.3504031313023
 20
13.122498752128694
 30
0
 40
2.99999999993111
100
AcDbArc
 50
359.2686085021079
 51
179.15629212323171
  0
LINE
  5
125
330
1F
100
AcDbEntity
  8
0
 62
7
100
AcDbLine
 10
107.49429138350217
 20
7.0000001001293768
 30
0
 11
107.49429138350217
 21
13.000000100129379
 31
0
  0
ARC
  5
126
330
1F
100
AcDbEntity
  8
0
 62
7
100
AcDbCircle
 10
105.49429138345249
 20
13.000000100079683
 30
0
 40
2.0000000000497
100
AcDbArc
 50
1.4236671642626088E-09
 51
89.99999999857674
  0
LINE
  5
127
330
1F
100
AcDbEntity
  8
0
 62
7
100
AcDbLine
 10
105.49429138350217
 20
15.000000100129379
 30
0
 11
80.494291383502173
 21
15.000000100137338
 31
0
  0
ARC
  5
128
330
1F
100
AcDbEntity
  8
0
 62
7
100
AcDbCircle
 10
80.494291383474092
 20
20.000000100109286
 30
0
 40
4.9999999999719
100
AcDbArc
 50
179.99999999967804
 51
270.00000000032179
  0
LINE
  5
129
330
1F
100
AcDbEntity
  8
0
 62
7
100
AcDbLine
 10
75.494291383502059
 20
20.000000100137381
 30
0
 11
75.494291383502173
 21
101.12853961503437
 31
0
  0
ARC
  5
12A
330
1F
100
AcDbEntity
  8
0
 62
7
100
AcDbCircle
 10
73.494291383799691
 20
101.12853961533197
 30
0
 40
1.99999999970242
100
AcDbArc
 50
359.99999999147428
 51
90.000000008523273
  0
LINE
  5
12B
330
1F
100
AcDbEntity
  8
0
 62
7
100
AcDbLine
 10
73.494291383502173
 20
103.12853961503437
 30
0
 11
67.494291383502173
 21
103.12853961503347
 31
0
  0
ARC
  5
12C
330
1F
100
AcDbEntity
  8
0
 62
7
100
AcDbCircle
 10
67.494291383289919
 20
101.12853961524567
 30
0
 40
1.99999999978779
100
AcDbArc
 50
89.999999993919388
 51
180.00000000605334
  0
LINE
  5
12D
330
1F
100
AcDbEntity
  8
0
 62
7
100
AcDbLine
 10
65.494291383502173
 20
101.12853961503437
 30
0
 11
65.494291383502059
 21
20.000000100137381
 31
0
  0
ARC
  5
12E
330
1F
100
AcDbEntity
  8
0
 62
7
100
AcDbCircle
 10
80.494291383519
 20
20.000000100154178
 30
0
 40
15.0000000000168
100
AcDbArc
 50
180.00000000006415
 51
269.99999999993571
  0
LINE
  5
12F
330
1F
100
AcDbEntity
  8
0
 62
7
100
AcDbLine
 10
80.494291383502173
 20
5.0000001001373384
 30
0
 11
105.49429138350217
 21
5.0000001001293768
 31
0
  0
ARC
  5
130
330
1F
100
AcDbEntity
  8
0
 62
7
100
AcDbCircle
 10
105.49429138337223
 20
7.0000001002593066
 30
0
 40
2.00000000012992
100
AcDbArc
 50
270.00000000372262
 51
359.99999999627778
  0
LINE
  5
131
330
1F
100
AcDbEntity
  8
0
 62
7
100
AcDbLine
 10
73.494291383502173
 20
93.048539615033363
 30
0
 11
73.494291383502173
 21
96.208539615033374
 31
0
  0
ARC
  5
132
330
1F
100
AcDbEntity
  8
0
 62
7
100
AcDbCircle
 10
70.494291383502173
 20
96.208546909239374
 30
0
 40
2.99999999999113
100
AcDbArc
 50
359.99986069092711
 51
180.00013930907289
  0
LINE
  5
133
330
1F
100
AcDbEntity
  8
0
 62
7
100
AcDbLine
 10
67.494291383502173
 20
96.208539615033374
 30
0
 11
67.494291383502173
 21
93.048539615033363
 31
0
  0
ARC
  5
134
330
1F
100
AcDbEntity
  8
0
 62
7
100
AcDbCircle
 10
70.494291383502173
 20
93.048549103972974
 30
0
 40
3.00000000001501
100
AcDbArc
 50
180.00018122539723
 51
359.99981877460277
  0
LINE
  5
135
330
1F
100
AcDbEntity
  8
0
 62
7
100
AcDbLine
 10
99.414291383501109
 20
7.0000001001302881
 30
0
 11
101.57429138350119
 21
7.0000001001264218
 31
0
  0
ARC
  5
136
330
1F
100
AcDbEntity
  8
0
 62
7
100
AcDbCircle
 10
101.57427584416951
 20
10.000000100129379
 30
0
 40
3.0000000000432
100
AcDbArc
 50
270.00029677937397
 51
89.999703220608652
  0
LINE
  5
137
330
1F
100
AcDbEntity
  8
0
 62
7
100
AcDbLine
 10
101.5742913835021
 20
13.000000100132334
 30
0
 11
99.414291383506111
 21
13.000000100136427
 31
0
  0
ARC
  5
138
330
1F
100
AcDbEntity
  8
0
 62
7
100
AcDbCircle
 10
99.4142751360165
 20
10.000000100133358
 30
0
 40
2.99999999995907
100
AcDbArc
 50
89.99968969580587
 51
270.0003103040986
  0
LINE
  5
139
330
1F
100
AcDbEntity
  8
0
 62
7
100
AcDbLine
 10
462.52831910002192
 20
5.0000001001293528
 30
0
 11
535.99999996641691
 21
5.0000001000011034
 31
0
  0
ARC
  5
13A
330
1F
100
AcDbEntity
  8
0
 62
7
100
AcDbCircle
 10
535.99999996646022
 20
20.000000099983097
 30
0
 40
14.999999999982
100
AcDbArc
 50
269.99999999983459
 51
359.99999999996874
  0
LINE
  5
13B
330
1F
100
AcDbEntity
  8
0
 62
7
100
AcDbLine
 10
550.99999996644215
 20
20.000000099974923
 30
0
 11
550.99999996654628
 21
79.12853961487103
 31
0
  0
ARC
  5
13C
330
1F
100
AcDbEntity
  8
0
 62
7
100
AcDbCircle
 10
535.99999996654788
 20
79.128539614899807
 30
0
 40
14.9999999999984
100
AcDbArc
 50
359.99999999989006
 51
89.9999999999062
  0
LINE
  5
13D
330
1F
100
AcDbEntity
  8
0
 62
7
100
AcDbLine
 10
535.99999996657243
 20
94.1285396148982
 30
0
 11
486.49999996657152
 21
94.1285396149846
 31
0
  0
ARC
  5
13E
330
1F
100
AcDbEntity
  8
0
 62
7
100
AcDbCircle
 10
486.49999996656237
 20
92.1285396149911
 30
0
 40
1.99999999999342
100
AcDbArc
 50
89.999999999737824
 51
180.00000000008589
  0
LINE
  5
13F
330
1F
100
AcDbEntity
  8
0
 62
7
100
AcDbLine
 10
484.49999996656896
 20
92.1285396149881
 30
0
 11
484.4999999665576
 21
86.1285396149881
 31
0
  0
ARC
  5
140
330
1F
100
AcDbEntity
  8
0
 62
7
100
AcDbCircle
 10
486.499999966247
 20
86.1285396146739
 30
0
 40
1.99999999968939
100
AcDbArc
 50
179.99999999099879
 51
270.00000000879851
  0
LINE
  5
141
330
1F
100
AcDbEntity
  8
0
 62
7
100
AcDbLine
 10
486.49999996655413
 20
84.1285396149846
 30
0
 11
535.999999966555
 21
84.1285396148972
 31
0
  0
ARC
  5
142
330
1F
100
AcDbEntity
  8
0
 62
7
100
AcDbCircle
 10
535.99999996640952
 20
79.128539614761308
 30
0
 40
5.0000000001359
100
AcDbArc
 50
1.4572945327945546E-09
 51
89.99999999833247
  0
LINE
  5
143
330
1F
100
AcDbEntity
  8
0
 62
7
100
AcDbLine
 10
540.99999996654537
 20
79.128539614888481
 30
0
 11
540.999999966443
 21
20.000000099992373
 31
0
  0
ARC
  5
144
330
1F
100
AcDbEntity
  8
0
 62
7
100
AcDbCircle
 10
535.999999966621
 20
20.000000099824305
 30
0
 40
4.99999999982206
100
AcDbArc
 50
269.99999999786087
 51
1.9259200041132626E-09
  0
LINE
  5
145
330
1F
100
AcDbEntity
  8
0
 62
7
100
AcDbLine
 10
535.9999999664343
 20
15.000000100002197
 30
0
 11
462.52831910003931
 21
15.000000100130446
 31
0
  0
ARC
  5
146
330
1F
100
AcDbEntity
  8
0
 62
7
100
AcDbCircle
 10
462.52831909983536
 20
13.000000100330961
 30
0
 40
1.99999999979953
100
AcDbArc
 50
89.999999994157136
 51
180.00000000567567
  0
LINE
  5
147
330
1F
100
AcDbEntity
  8
0
 62
7
100
AcDbLine
 10
460.52831910003584
 20
13.000000100132842
 30
0
 11
460.52831910002539
 21
7.0000001001328434
 31
0
  0
ARC
  5
148
330
1F
100
AcDbEntity
  8
0
 62
7
100
AcDbCircle
 10
462.52831909979949
 20
7.0000000999034713
 30
0
 40
1.99999999977412
100
AcDbArc
 50
179.999999993429
 51
270.00000000637209
  0
ARC
  5
149
330
1F
100
AcDbEntity
  8
0
 62
7
100
AcDbCircle
 10
492.57999467818087
 20
89.12853961497
 30
0
 40
3.00000000000773
100
AcDbArc
 50
270.00010100051628
 51
89.999898999283957
  0
LINE
  5
14A
330
1F
100
AcDbEntity
  8
0
 62
7
100
AcDbLine
 10
492.579999966566
 20
92.128539614973
 30
0
 11
490.4199999665679
 21
92.128539614980653
 31
0
  0
ARC
  5
14B
330
1F
100
AcDbEntity
  8
0
 62
7
100
AcDbCircle
 10
490.41999012475463
 20
89.128539614977754
 30
0
 40
2.99999999998681
100
AcDbArc
 50
89.999812035212358
 51
270.00018796458676
  0
LINE
  5
14C
330
1F
100
AcDbEntity
  8
0
 62
7
100
AcDbLine
 10
490.41999996655738
 20
86.128539614974756
 30
0
 11
492.57999996655553
 21
86.128539614966883
 31
0
  0
ARC
  5
14D
330
1F
100
AcDbEntity
  8
0
 62
7
100
AcDbCircle
 10
465.94832629071175
 20
10.00000010012452
 30
0
 40
3.00000000000864
100
AcDbArc
 50
90.000137511359753
 51
269.9998624884405
  0
LINE
  5
14E
330
1F
100
AcDbEntity
  8
0
 62
7
100
AcDbLine
 10
465.94831909062333
 20
7.0000001001245211
 30
0
 11
468.10831909062341
 21
7.0000001001207481
 31
0
  0
ARC
  5
14F
330
1F
100
AcDbEntity
  8
0
 62
7
100
AcDbCircle
 10
468.10832278419338
 20
10.000000100120747
 30
0
 40
2.99999999999773
100
AcDbArc
 50
269.99992945800983
 51
90.000070541790365
  0
LINE
  5
150
330
1F
100
AcDbEntity
  8
0
 62
7
100
AcDbLine
 10
468.10831909063387
 20
13.000000100120747
 30
0
 11
465.94831909063379
 21
13.00000010012452
 31
0
  0
ENDSEC
  0
SECTION
  2
OBJECTS
  0
DICTIONARY
  5
C
330
0
100
AcDbDictionary
280
0
281
1
  3
ACAD_SCALELIST
350
156
  3
ACAD_COLOR
350
168
  3
ACAD_FIELDLIST
350
169
  3
ACAD_GROUP
350
D
  3
ACAD_IMAGE_DICT
350
16A
  3
ACAD_LAYOUT
350
1A
  3
ACAD_MATERIAL
350
16B
  3
ACAD_MLEADERSTYLE
350
16C
  3
ACAD_MLINESTYLE
350
17
  3
ACAD_PLOTSETTINGS
350
19
  3
ACAD_PLOTSTYLENAME
350
E
  3
ACAD_TABLESTYLE
350
16E
  3
ACDB_RECOMPOSE_DATA
350
172
  3
AcDbVariableDictionary
350
173
  3
ACAD_VISUALSTYLE
350
176
  3
DWGPROPS
350
177
  0
DICTIONARY
  5
170
330
16F
100
AcDbDictionary
280
0
281
1
  3
ACAD_ROUNDTRIP_2008_TABLESTYLE_CELLSTYLEMAP
360
171
  0
DICTIONARY
  5
156
102
{ACAD_REACTORS
330
C
102
}
330
C
100
AcDbDictionary
280
0
281
1
  0
DICTIONARY
  5
168
102
{ACAD_REACTORS
330
C
102
}
330
C
100
AcDbDictionary
280
0
281
1
  0
FIELDLIST
  5
169
102
{ACAD_REACTORS
330
C
102
}
330
C
100
AcDbIdSet
100
AcDbFieldList
  0
DICTIONARY
  5
D
102
{ACAD_REACTORS
330
C
102
}
330
C
100
AcDbDictionary
280
0
281
1
  0
DICTIONARY
  5
16A
102
{ACAD_REACTORS
330
C
102
}
330
C
100
AcDbDictionary
280
0
281
1
  0
DICTIONARY
  5
1A
102
{ACAD_REACTORS
330
C
102
}
330
C
100
AcDbDictionary
280
0
281
1
  3
Layout1
350
1E
  3
Model
350
22
  0
DICTIONARY
  5
16B
102
{ACAD_REACTORS
330
C
102
}
330
C
100
AcDbDictionary
280
0
281
1
  0
DICTIONARY
  5
16C
102
{ACAD_REACTORS
330
C
102
}
330
C
100
AcDbDictionary
280
0
281
1
  3
Standard
350
16D
  0
DICTIONARY
  5
17
102
{ACAD_REACTORS
330
C
102
}
330
C
100
AcDbDictionary
280
0
281
1
  3
STANDARD
350
18
  0
DICTIONARY
  5
19
102
{ACAD_REACTORS
330
C
102
}
330
C
100
AcDbDictionary
280
0
281
1
  0
ACDBDICTIONARYWDFLT
  5
E
102
{ACAD_REACTORS
330
C
102
}
330
C
100
AcDbDictionary
280
0
281
1
  3
Normal
350
F
100
AcDbDictionaryWithDefault
340
F
  0
ACDBPLACEHOLDER
  5
F
102
{ACAD_REACTORS
330
E
102
}
330
E
  0
DICTIONARY
  5
16E
102
{ACAD_REACTORS
330
C
102
}
330
C
100
AcDbDictionary
280
0
281
1
  3
Standard
350
16F
  0
XRECORD
  5
172
102
{ACAD_REACTORS
330
C
102
}
330
C
100
AcDbXrecord
280
1
 90
1
330
16F
  0
DICTIONARY
  5
173
102
{ACAD_REACTORS
330
C
102
}
330
C
100
AcDbDictionary
280
0
281
1
  3
DIMASSOC
350
174
  3
HIDETEXT
350
175
  0
DICTIONARY
  5
176
102
{ACAD_REACTORS
330
C
102
}
330
C
100
AcDbDictionary
280
0
281
1
  0
XRECORD
  5
177
102
{ACAD_REACTORS
330
C
102
}
330
C
100
AcDbXrecord
280
0
  1
DWGPROPS COOKIE
  2

  3

  4

  6

  7

  8

  9

300
=
301
=
302
=
303
=
304
=
305
=
306
=
307
=
308
=
309
=
 40
0
 41
2461028.0494965971
 42
2461028.0494965971
  1

 90
0
  0
CELLSTYLEMAP
  5
171
102
{ACAD_REACTORS
330
170
102
}
330
170
100
AcDbCellStyleMap
 90
3
300
CELLSTYLE
  1
TABLEFORMAT_BEGIN
 90
5
170
0
309
TABLEFORMAT_END
  1
CELLSTYLE_BEGIN
 90
3
 91
2
300
_DATA
309
CELLSTYLE_END
300
CELLSTYLE
  1
TABLEFORMAT_BEGIN
 90
5
170
0
309
TABLEFORMAT_END
  1
CELLSTYLE_BEGIN
 90
1
 91
2
300
_TITLE
309
CELLSTYLE_END
300
CELLSTYLE
  1
TABLEFORMAT_BEGIN
 90
5
170
0
309
TABLEFORMAT_END
  1
CELLSTYLE_BEGIN
 90
2
 91
2
300
_HEADER
309
CELLSTYLE_END
  0
LAYOUT
  5
1E
102
{ACAD_REACTORS
330
1A
102
}
330
1A
100
AcDbPlotSettings
  1

  2
C:\Program Files\AutoCAD 2002\plotters\DWF ePlot (optimized for plotting).pc3
  4

  6

 40
0
 41
0
 42
0
 43
0
 44
0
 45
0
 46
0
 47
0
 48
0
 49
0
140
0
141
0
142
1
143
1
 70
688
 72
1
 73
1
 74
1
  7
acad.stb
 75
16
 76
0
 77
0
 78
0
147
1
148
0
149
0
100
AcDbLayout
  1
Layout1
 70
1
 71
1
 10
0
 20
0
 11
420
 21
297
 12
0
 22
0
 32
0
 14
0
 24
0
 34
0
 15
0
 25
0
 35
0
146
0
 13
0
 23
0
 33
0
 16
1
 26
0
 36
0
 17
0
 27
1
 37
0
 76
0
330
151
  0
LAYOUT
  5
22
102
{ACAD_REACTORS
330
1A
102
}
330
1A
100
AcDbPlotSettings
  1

  2
C:\Program Files\AutoCAD 2002\plotters\DWF ePlot (optimized for plotting).pc3
  4

  6

 40
0
 41
0
 42
0
 43
0
 44
0
 45
0
 46
0
 47
0
 48
0
 49
0
140
0
141
0
142
1
143
1
 70
1712
 72
1
 73
1
 74
0
  7
acad.stb
 75
0
 76
0
 77
0
 78
0
147
1
148
0
149
0
100
AcDbLayout
  1
Model
 70
1
 71
0
 10
0
 20
0
 11
12
 21
9
 12
0
 22
0
 32
0
 14
0
 24
0
 34
0
 15
0
 25
0
 35
0
146
0
 13
0
 23
0
 33
0
 16
1
 26
0
 36
0
 17
0
 27
1
 37
0
 76
0
330
1F
  0
MLEADERSTYLE
  5
16D
102
{ACAD_REACTORS
330
16C
102
}
330
16C
100
AcDbMLeaderStyle
170
2
171
1
172
0
 90
2
 40
0
 41
0
173
1
 91
0
340
0
 92
-2
290
1
 42
0.09
292
1
 43
0.36
  3
Standard
341
0
 44
0.18
300

342
0
174
1
178
1
175
1
176
0
 93
0
 45
0.18
292
0
297
0
 46
0
343
0
 94
0
 47
1
 49
1
140
1
293
1
141
0
294
1
177
0
142
1
295
0
296
0
143
0.125
  0
MLINESTYLE
  5
18
102
{ACAD_REACTORS
330
17
102
}
330
17
100
AcDbMlineStyle
  2
STANDARD
 70
0
  3

 51
90
 52
90
 71
2
 49
0.5
 62
0
  6
ByLayer
 49
-0.5
 62
0
  6
ByLayer
  0
TABLESTYLE
  5
16F
102
{ACAD_XDICTIONARY
360
170
102
}
102
{ACAD_REACTORS
330
16E
102
}
330
16E
100
AcDbTableStyle
  3

 70
0
 71
0
 40
0.06
 41
0.06
280
0
281
0
  7
Standard
140
0.18
170
1
 62
0
283
0
 90
512
 91
0
274
-2
284
1
 64
0
275
-2
285
1
 65
0
276
-2
286
1
 66
0
277
-2
287
1
 67
0
278
-2
288
1
 68
0
279
-2
289
1
 69
0
  7
Standard
140
0.18
170
1
 62
0
283
0
 90
512
 91
0
274
-2
284
1
 64
0
275
-2
285
1
 65
0
276
-2
286
1
 66
0
277
-2
287
1
 67
0
278
-2
288
1
 68
0
279
-2
289
1
 69
0
  7
Standard
140
0.18
170
1
 62
0
283
0
 90
512
 91
0
274
-2
284
1
 64
0
275
-2
285
1
 65
0
276
-2
286
1
 66
0
277
-2
287
1
 67
0
278
-2
288
1
 68
0
279
-2
289
1
 69
0
  0
DICTIONARYVAR
  5
174
102
{ACAD_REACTORS
330
173
102
}
330
173
100
DictionaryVariables
280
0
  1
1
  0
DICTIONARYVAR
  5
175
102
{ACAD_REACTORS
330
173
102
}
330
173
100
DictionaryVariables
280
0
  1
2
  0
ENDSEC
999
Created By CadLib version 4.0.38.30
999
CadLib website: www.woutware.com
  0
EOF
